» » »

Nile - Sacrifice Unto Sebek Tabs

Artists:  A B C D E F G H I J K L M N O P Q R S T U V W X Y Z # 

Sacrifice Unto Sebek Tabs

(ver. 1) Click to play this song!
Nile
 Rating:
4/5 (4 votes)

 Sacrifice Unto Sebek lessons Tabs too difficult? Try these video lessons and learn fast
 
                (Intro)
.  - palm mute           /  - slide up to
\  - slide down to       *^ - Harmonic & Bend
h  - hammer on           b  - Bend
p  - pull off            Suffixes for bend
t  - tap                 f  - full bend    h - half bend
ph - pinched harmonic    q  - quarter bend t - tap bend
*  - see comment         ^  - Hold bend    r release bend
x  - Stuccatto           ~  - Let Ring
,  - slight palm mute    () - ghost note, sustained note
"  - tremolo note         - Trill

Tuning - Guitar I - A-E-A-D-F#-B
Tuning - Guitar II - A-E-A-D-F#-B

Introduction;

Guitar I & II

B||-------------------|--------------||
F#|-------------------|--------------||
D||-------------------|--------------||
A||-------------------|--------------||
E||--5-3-0-1-3-1-0-1--|--0-1-0~------||
A||--5-3-0-1-3-1-0-1--|--0-1-0~------||
     . . . . . . . . 

Then....

Guitar I

B||-------------------|-----------------|-----------||
F#|o------------------|-----------------|----------o||
D||-------------------|-------------15--|-----------||
A||-------------------|-------------x---|-----------||
E||o-5-3-0-1-3-1-0-1--|--0-1-3-1-0--13--|--0-1-0~--o||
A||--5-3-0-1-3-1-0-1--|--0-1-3-1-0------|--0-1-0~---||
     . . . . . . . .

Guitar II

B||-------------------|----------------------|-------------||
F#|o------------------|----------------------|------------o||
D||-------------------|--9-10--12-10--9-14---|--9-10--9~---||
A||-------------------|--x--x--x---x--x--x---|--x--x--x~---||
E||o-5-3-0-1-3-1-0-1--|--7--8--10--8--7--12--|--7--8--7~--o||
A||--5-3-0-1-3-1-0-1--|----------------------|-------------||
     . . . . . . . .

Pre-Verse;

Guitar I

B||-----------------------||
F#|-----------------------||
D||-----------------------||
A||-----------------------||
E||--2/3------------------||
A||------0-0-1p0-2/3-0h1--||
         . .

Verse;

Guitar I & II

B||-----------------------------------------------||
F#|-----------------------------------------------||
D||-----------------------------------------------||
A||-----------------------3h2p0-------------------|| X 2
E||------------------------------00-------3h2p0---||
A||--5h3-00-3h2p0--5h3-00------------5h3----------||
         ..            ..        ..

Pre-Chorus;

B||--------------------------||
F#|-10/12--------------------||
D||--8/10--------------------||
A||------------------6h5-0---||
E||-------10h8-0-8h7---------||
A||--------------------------||

Breakdown;

B||------------------------------------------------|
F#|---------10h13-13-13h10-10h8-8------------------|
D||------------------------------------------------|
A||------------------------------------------3*^---|
E||------------------------------------------------|
A||-0-0-0---------------------------0-0-0-0--------|
    . . .                           . . . . 

Solo;

Havent Got



Outro;

Guitar I & II

B||-------------------|--------------||
F#|-------------------|--------------||
D||-------------------|--------------||
A||-------------------|--------------||
E||--5-3-0-1-3-1-0-1--|--0-1-0~------||
A||--5-3-0-1-3-1-0-1--|--0-1-0~------||
     . . . . . . . . 

Then....

Guitar I

B||-------------------|-----------------|-----------||
F#|o------------------|-----------------|----------o||
D||-------------------|-------------15--|-----------||
A||-------------------|-------------x---|-----------||
E||o-5-3-0-1-3-1-0-1--|--0-1-3-1-0--13--|--0-1-0~--o||
A||--5-3-0-1-3-1-0-1--|--0-1-3-1-0------|--0-1-0~---||
     . . . . . . . .

Guitar II

B||-------------------|----------------------|-------------||
F#|o------------------|----------------------|------------o||
D||-------------------|--9-10--12-10--9-14---|--9-10--9~---||
A||-------------------|--x--x--x---x--x--x---|--x--x--x~---||
E||o-5-3-0-1-3-1-0-1--|--7--8--10--8--7--12--|--7--8--7~--o||
A||--5-3-0-1-3-1-0-1--|----------------------|-------------||
     . . . . . . . .


This Is Actually The Whole Song Not An Intro Anymore

Please Rate & Comment
            
Submit corrections


        Sacrifice Unto Sebek lessons Hard to play? Try these video lessons and learn fast Sacrifice Unto Sebek lessons
        
↑ Back to top | Tablatures and chords for acoustic guitar and electric guitar, ukulele, drums are parodies/interpretations of the original songs. You may use it for private study, scholarship, research or language learning purposes only