Home » N » Nik Kershaw »

Nik Kershaw - Wouldn't It Be Good Bass

Artists:  A B C D E F G H I J K L M N O P Q R S T U V W X Y Z # 

Wouldn't It Be Good Bass

(ver. 2) Click to play this song!
Nik Kershaw
 Rating:
4/5 (5 votes)
                -----------------------------------------------------------------------------
                      WOULDN’T IT BE GOOD - Nik Kershaw
-----------------------------------------------------------------------------


Tuning: E A D B

INTRO
|-------|
|2:-----|
|4:-----|
|---11-1|

CHORUS 1
|---------|---------|--------|--------|--------|--------|
|:--------|--------:|--------|--------|--------|--------|
|:1--1----|3--3----:|1--1----|3--3----|5--5----|5--5----|
|-----3--3|----1--1-|----3--3|----5--5|----5--5|----0--0|

VERSE 1  x3                   x3
|----------|---------|----------|
|:--------:|---------|:--------:|
|:2--x2--x:|2--x/5420|:2--x2--x:|
|----------|---------|----------|

BRIDGE 1
|---------|--------|----------|----------|---------|--------|--------|
|-------4/|5-------|--------5/|6---------|---------|--------|--------|
|3--3-----|--------|---3/4----|---3/4--6/|7--1/2--4|5--5---5|5-5-----|
|----3----|-3-33--3|2---------|----------|---------|------5-|----1131|

CHORUS 2
|---------|---------|--------|--------|--------|---/31---|
|:--------|--------:|--------|--------|--------|------32-|
|:1--1----|3--3----:|1--1----|3--3----|5--5----|5-------3|
|-----3--3|----1--1-|----3--3|----5--5|----5--5|---------|

CHORUS 1
|---------|---------|--------|--------|--------|--------|
|:--------|--------:|--------|--------|--------|--------|
|:1--1----|3--3----:|1--1----|3--3----|5--5----|5--5----|
|-----3--3|----1--1-|----3--3|----5--5|----5--5|----0--0|

VERSE 2           x3         x3 
|--------|----------|----------|
|--------|:--------:|:--------:|
|2-------|:--------:|:2--22--2:|
|--------|----------|----------|

BRIDGE 2
|---------|--------|----------|----------|---------|--------|--------|
|-------4/|5-------|--------5/|6---------|---------|--------|--------|
|3--3-----|--------|---3/4----|---3/4--6/|7--1/2--4|5--5----|5--5----|
|----3----|-3-33--3|2---------|----------|---------|-------5|--------|

BREAK    x7
|----------|--------|
|:--------:|--------|
|:--------:|--------|
|----------|----11-1|

CHORUS 3
|---------|---------|--------|--------|--------|--------|
|:--------|--------:|--------|--------|--------|--------|
|:1--1----|3--3----:|1--1----|3--3----|5--5----|5--5----|
|-----3--3|----1--1-|----3--3|----5--5|----5--5|----1131|

CHORUS 4
|---------|---------|--------|--------|--------|-/75-----|
|:--------|--------:|--------|--------|--------|----75-0-|
|:1--1----|3--3----:|1--1----|3--3----|5--5----|------0-3|
|-----3--3|----1--1-|----3--3|----5--5|----5--5|---------|

CHORUS 5
|---------|---------|--------|--------|--------|--------|
|:--------|--------:|--------|--------|--------|--------|
|:1--1----|3--3----:|1--1----|3--3----|5--5----|55------|
|-----3--3|----1--1-|----3--3|----5--5|----5--5|----11-1|

CHORUS 2
|---------|---------|--------|--------|--------|---/31---|
|:--------|--------:|--------|--------|--------|------32-|
|:1--1----|3--3----:|1--1----|3--3----|5--5----|5-------3|
|-----3--3|----1--1-|----3--3|----5--5|----5--5|---------|

CHORUS 6
|---------|---------|--------|--------|--------|--------|
|:--------|--------:|--------|--------|--------|--------|
|:1--1----|3--3----:|1--1----|3--3----|5--5----|55------|
|-----3--3|----1--1-|----3--3|----5--5|----5--5|----1131|
            
Submit corrections

↑ Back to top | Tablatures and chords for acoustic guitar and electric guitar, ukulele, drums are parodies/interpretations of the original songs. You may use it for private study, scholarship, research or language learning purposes only