» » »

Nik Kershaw - Wouldn't It Be Good Bass

Artists:  A B C D E F G H I J K L M N O P Q R S T U V W X Y Z # 

Wouldn't It Be Good Bass

(ver. 1) Click to play this song!
Nik Kershaw
 Rating:
4/5 (4 votes)

 Wouldn't It Be Good lessons Tabs too difficult? Try these video lessons and learn fast
 
                Nik Kershaw
Bass Tab
Bassist: Nik Kershaw

208BPM, 4/4

Intro

|----------|
|----------|
|----------|
|-------1--|

||------------|-----------|-----------|------------||
||o-----------|-----------|-----------|-----------o||
||o-1------1--|-----------|-3------3--|-----------o||
||------------|-3------3--|-----------|-1------1---||

|-----------|-----------|-----------|-----------|
|-----------|-----------|-----------|-----------|
|-1------1--|-----------|-3------3--|-----------|
|-----------|-3------3--|-----------|-5------5--|

|-----------|-----------|--------/3--|-2-----------|
|-----------|-----------|------------|----3--2-----|
|-5------5--|-----------|-5----------|----------3--|
|-----------|-5------5--|------------|-------------|

||------------|-----------|-----------|------------||
||o-----------|-----------|-----------|-----------o||
||o-1------1--|-----------|-3------3--|-----------o||
||------------|-3------3--|-----------|-1------1---||

|-----------|-----------|-----------|-----------|
|-----------|-----------|-----------|-----------|
|-1------1--|-----------|-3------3--|-----------|
|-----------|-3------3--|-----------|-5------5--|

|-----------|-----------|-----------|-----------|
|-----------|-----------|-----------|-----------|
|-5------5--|-----------|-5------5--|-----------|
|-----------|-5------5--|-----------|-0------0--|

Verse

|-----------|-----------|-----------|-----------|
|-----------|-----------|-----------|-----------|
|-2------x--|-2------x--|-2------x--|-2------x--|
|-----------|-----------|-----------|-----------|

|-----------|-----------|-----------|--------------|
|-----------|-----------|-----------|--------------|
|-2------x--|-2------x--|-2------x--|-/5--5--2-----|
|-----------|-----------|-----------|-----------5--|

|-----------|-----------|-----------|-----------|
|-----------|-----------|-----------|-----------|
|-2------x--|-2------x--|-2------x--|-2------x--|
|-----------|-----------|-----------|-----------|

|-----------|-----------|------------|-----------|
|-2------2--|--------4h=|=5----------|-----------|
|-----------|-----------|------------|-----------|
|-----------|-3---------|----3----3--|-3------3--|

|-----------|-----------|-----------|-----------|
|-----------|--------5h=|=6---------|-----------|
|--------3h=|=4---------|--------3h=|=4------6h=|
|-2---------|-----------|-----------|-----------|

|-----------|-----------|-----------|----------|
|-----------|-----------|-----------|----------|
|-7------1h=|=2------4--|-5------5--|-------5--|
|-----------|-----------|-----------|----------|

|------------|-----------|
|------------|-----------|
|-5--5----5--|-----------|
|------------|-1------1--|

Chorus

||------------|-----------|-----------|------------||
||o-----------|-----------|-----------|-----------o||
||o-1------1--|-----------|-3------3--|-----------o||
||------------|-3------3--|-----------|-1------1---||

|-----------|-----------|-----------|-----------|
|-----------|-----------|-----------|-----------|
|-1------1--|-----------|-3------3--|-----------|
|-----------|-3------3--|-----------|-5------5--|

|-----------|-----------|--------/3--|-2-----------|
|-----------|-----------|------------|----3--2-----|
|-5------5--|-----------|-5----------|----------3--|
|-----------|-5------5--|------------|-------------|

||------------|-----------|-----------|------------||
||o-----------|-----------|-----------|-----------o||
||o-1------1--|-----------|-3------3--|-----------o||
||------------|-3------3--|-----------|-1------1---||

|-----------|-----------|-----------|-----------|
|-----------|-----------|-----------|-----------|
|-1------1--|-----------|-3------3--|-----------|
|-----------|-3------3--|-----------|-5------5--|

|-----------|-----------|-----------|-----------|
|-----------|-----------|-----------|-----------|
|-5------5--|-----------|-5------5--|-----------|
|-----------|-5------5--|-----------|-0------0--|

Verse

|----------|---------|---------|---------|
|----------|---------|---------|---------|
|----------|---------|---------|---------|
|-7--------|---------|---------|---------|

|---------|---------|---------|---------|
|---------|---------|---------|---------|
|---------|---------|---------|---------|
|---------|---------|---------|---------|

|-----------|-----------|-----------|-----------|
|-----------|-----------|-----------|-----------|
|-2------2--|-2------2--|-2------2--|-2------2--|
|-----------|-----------|-----------|-----------|

|-----------|-----------|-----------|-----------|
|-----------|-----------|-2------2--|--------4h=|
|-2------2--|-2------2--|-----------|-----------|
|-----------|-----------|-----------|-3---------|

|------------|-----------|-----------|-----------|
|-5----------|-----------|-----------|--------5h=|
|------------|-----------|--------3h=|=4---------|
|----3----3--|-3------3--|-2---------|-----------|

|-----------|-----------|-----------|-----------|
|-6---------|-----------|-----------|-----------|
|--------3h=|=4------6h=|=7------1h=|=2------4h=|
|-----------|-----------|-----------|-----------|

|-----------|---------|-----------|---------|
|-----------|---------|-----------|---------|
|-5------5--|---------|-5------5--|---------|
|-----------|---------|-----------|---------|

                                            4x
||----------|---------|---------|-----------|| *Last time only
||o---------|---------|---------|----------o||
||o---------|---------|---------|----------o||
||----------|---------|---------|-------1*--||

Solo

||------------|-----------|-----------|------------||
||o-----------|-----------|-----------|-----------o||
||o-1------1--|-----------|-3------3--|-----------o||
||------------|-3------3--|-----------|-1------1---||

|-----------|-----------|-----------|-----------|
|-----------|-----------|-----------|-----------|
|-1------1--|-----------|-3------3--|-----------|
|-----------|-3------3--|-----------|-5------5--|

|-----------|-----------|-----------|----------|
|-----------|-----------|-----------|----------|
|-5------5--|-----------|-5------5--|----------|
|-----------|-5------5--|-----------|-1--------|

||------------|-----------|-----------|------------||
||o-----------|-----------|-----------|-----------o||
||o-1------1--|-----------|-3------3--|-----------o||
||------------|-3------3--|-----------|-1------1---||

|-----------|-----------|-----------|-----------|
|-----------|-----------|-----------|-----------|
|-1------1--|-----------|-3------3--|-----------|
|-----------|-3------3--|-----------|-5------5--|

|-----------|-----------|----/10--9------|---------|
|-----------|-----------|------------10--|---------|
|-5------5--|-----------|-x--------------|---------|
|-----------|-5------5--|----------------|---------|

Chorus

||------------|-----------|-----------|------------||
||o-----------|-----------|-----------|-----------o||
||o-1------1--|-----------|-3------3--|-----------o||
||------------|-3------3--|-----------|-1------1---||

|-----------|-----------|-----------|-----------|
|-----------|-----------|-----------|-----------|
|-1------1--|-----------|-3------3--|-----------|
|-----------|-3------3--|-----------|-5------5--|

|-----------|-----------|-----------|----------|
|-----------|-----------|-----------|----------|
|-5------5--|-----------|-5--5------|----------|
|-----------|-5------5--|-----------|-------1--|

||------------|-----------|-----------|------------||
||o-----------|-----------|-----------|-----------o||
||o-1------1--|-----------|-3------3--|-----------o||
||------------|-3------3--|-----------|-1------1---||

|-----------|-----------|-----------|-----------|
|-----------|-----------|-----------|-----------|
|-1------1--|-----------|-3------3--|-----------|
|-----------|-3------3--|-----------|-5------5--|

|-----------|-----------|--------/3--|-2-----------|
|-----------|-----------|------------|----3--2-----|
|-5------5--|-----------|-5----------|----------3--|
|-----------|-5------5--|------------|-------------|

Coda

||------------|-----------|-----------|------------||
||o-----------|-----------|-----------|-----------o||
||o-1------1--|-----------|-3------3--|-----------o||
||------------|-3------3--|-----------|-1------1---||

|-----------|-----------|-----------|-----------|
|-----------|-----------|-----------|-----------|
|-1------1--|-----------|-3------3--|-----------|
|-----------|-3------3--|-----------|-5------5--|

|-----------|-----------|-----------|---------|
|-----------|-----------|-----------|---------|
|-5------5--|-----------|-5--5------|---------|
|-----------|-5------5--|-----------|---------| fade
            
Submit corrections


        Wouldn't It Be Good lessons Hard to play? Try these video lessons and learn fast Wouldn't It Be Good lessons
        
↑ Back to top | Tablatures and chords for acoustic guitar and electric guitar, ukulele, drums are parodies/interpretations of the original songs. You may use it for private study, scholarship, research or language learning purposes only