» » »

Nicole Dollanganger - Cries Of The Elephant Man Bones Tabs

Artists:  A B C D E F G H I J K L M N O P Q R S T U V W X Y Z # 

Cries Of The Elephant Man Bones Tabs

(ver. 1) Click to play this song!
Nicole Dollanganger
 Rating:
4.3/5 (12 votes)

 Cries Of The Elephant Man Bones  lessons Tabs too difficult? Try these video lessons and learn fast
 
                [Verse 1]

e|-----4---4---4---4--|
B|---1---1---1---1----|
G|--------------------| x9
D|--------------------|
A|--------------------|
E|--------------------|

[Chorus]

e|-----4---4---4---4----4---4---4---4---4---4---4---4---4---4---4---4--|
B|---1---1---1---1----3---3---3---3---5---5---5---5---3---3---0---0----|
G|---------------------------------------------------------------------| x2
D|---------------------------------------------------------------------|
A|---------------------------------------------------------------------|
E|---------------------------------------------------------------------|

[Verse 2]

e|-----4---4---4---4--|
B|---1---1---1---1----|
G|--------------------| x9
D|--------------------|
A|--------------------|
E|--------------------|

["Gooble gobble..."]

e|-----4---4---4---4----4---4---4---4---4---4---4---4---4---4---4---4--|
B|---1---1---1---1----3---3---3---3---5---5---5---5---3---3---0---0----|
G|---------------------------------------------------------------------| x3
D|---------------------------------------------------------------------|
A|---------------------------------------------------------------------|
E|---------------------------------------------------------------------|

[Outro , "I hear your soft bones crying"]

e|-----4---4---4---4--|
B|---1---1---1---1----|
G|--------------------| x4
D|--------------------|
A|--------------------|
E|--------------------|            
Submit corrections


        Cries Of The Elephant Man Bones  lessons Hard to play? Try these video lessons and learn fast Cries Of The Elephant Man Bones  lessons
        
↑ Back to top | Tablatures and chords for acoustic guitar and electric guitar, ukulele, drums are parodies/interpretations of the original songs. You may use it for private study, scholarship, research or language learning purposes only