Home » N » Nick Lowe »

Nick Lowe - Cruel To Be Kind Bass

Artists:  A B C D E F G H I J K L M N O P Q R S T U V W X Y Z # 

Cruel To Be Kind Bass

(ver. 3) Click to play this song!
Nick Lowe
Intro:
G|-------------------------------------|
D|-------------------------------------|
A|-3-3-3-3---2-2-2-2-------------------|
E|-------------------5-5-5-5---3-3-3-3-|

G|---------------------------------------------|
D|---------------------------------------------|
A|-3-3-3-3---2-2-2-2---------------------------|
E|-------------------5-5-5-5---3-3-3-3-3-3-3-3-|

Verse:
G|-------------------------------------------------------------------------|
D|---------2-2-2-2---3-3-3-3---5-5-5-5---------2-2-2-2---3-3-2-2---0-0-0-0-|
A|-3-3-3-3-----------------------------3-3-3-3-----------------------------|
E|-------------------------------------------------------------------------|

G|---------------------------------------|
D|-3-3-3-3---2-2-2-2---3-3-3-3---5-5-5-5-|
A|---------------------------------------|
E|---------------------------------------|

Chorus 1:
G|-----------------------------------------------------------------------|
D|-----------------------------------------------------------------------|
A|-----------------------------------------------------------------------|
E|-1-1---3-3---0-0---5-5---1-1---3-3---0-0---5-5---1-1---3-3---0-0---5-5-|

G|---------------------------|
D|-5-5-5-5-5-5-5-5---5-5-5-5-|
A|---------------------------|
E|---------------------------|

Instrumental Bit 1:
G|--------------------------------------|
D|--------------------------------------|
A|--3-3-3-3---2-2-2-2-------------------|
E|--------------------5-5-5-5---3-3-3-3-|

Repeat Verse:

Chorus 2:
G|-----------------------------------------------------------------------|
D|-----------------------------------------------------------------------|
A|-----------------------------------------------------------------------|
E|-1-1---3-3---0-0---5-5---1-1---3-3---0-0---5-5---1-1---3-3---0-0---5-5-|

G|-------------------------------------------------------------|
D|-5-5-5-5-5-5-5-5---5-5-5-5-----------------------------------|
A|---------------------------3-3-3-3-3-3-3-3---0-0-0-0-0-0-0-0-|
E|-------------------------------------------------------------|

Instrumental Bit 2:
G|-----------------------------------------------------------------------|
D|-----------------------------------------------------------------------|
A|-----------------------------------------------------------------------|
E|-1-1---3-3---0-0---5-5---1-1---3-3---0-0---5-5---1-1---3-3---0-0---5-5-|

G|---------------------------|
D|-5-5-5-5-5-5-5-5---5-5-5-5-|
A|---------------------------|
E|---------------------------|

Repeat Verse:

Repeat Chorus 1 To Fade/End

Suggested Ending For Live Performance:

Play Chorus 2 x3 And End With This:
G|-------------------------------------|
D|-------------------------------------|
A|-3-3-3-3---2-2-2-2-------------------|
E|-------------------5-5-5-5---3-3-3-3-|

G|----------------------------------------|
D|----------------------------------------|
A|-3-3-3-3---2-2-2-2--------------------3-|
E|-------------------5-5-5-5---3-3-3-3----|            
Submit corrections

↑ Back to top | Tablatures and chords for acoustic guitar and electric guitar, ukulele, drums are parodies/interpretations of the original songs. You may use it for private study, scholarship, research or language learning purposes only