Home » N » Nick Lowe »

Nick Lowe - Cruel To Be Kind Tabs

Artists:  A B C D E F G H I J K L M N O P Q R S T U V W X Y Z # 

Cruel To Be Kind Tabs

(ver. 1) Click to play this song!
Nick Lowe
   Intro
    Q=134                                          1.
    C               G/D             F/C             G/D
   4/4
    Gtr I (Ac. Gtr.)
    Q  Q  E E E E   Q  Q  E E E E   Q  Q  E E E E   E E Q  E E E E
||--0--0--0-0-0-0-|---------------|---------------|-----------------||
||o-1--1--1-1-1-1-|-3--3--3-3-3-3-|-1--1--1-1-1-1-|-3-3-3--3-3-3-3-o||
||--0--0--0-0-0-0-|-4--4--4-4-4-4-|-2--2--2-2-2-2-|-4-4-4--4-4-4-4--||
||--2--2--2-2-2-2-|-5--5--5-5-5-5-|-3--3--3-3-3-3-|-5-5-5--5-5-5-5--||
||o-3--3--3-3-3-3-|-5--5--5-5-5-5-|-3--3--3-3-3-3-|-5-5-5--5-5-5-5-o||
||----------------|---------------|---------------|-----------------||


                                      1st - 3rd Verses
  2.
                                   $
                                       C               Em
  E E E E E E E E   E E E E E E Q      Q  Q  E E E E   Q  Q  E E E E
|-----------------|----------------||--0--0--0-0-0-0-|-0--0--0-0-0-0-|
|-3-3-3-3-3-3-3-3-|-3-3-3-3-3-3-3--||o-1--1--1-1-1-1-|-0--0--0-0-0-0-|
|-4-4-4-4-4-4-4-4-|-4-4-4-4-4-4-4--||--0--0--0-0-0-0-|-0--0--0-0-0-0-|
|-5-5-5-5-5-5-5-5-|-5-5-5-5-5-5-5--||--2--2--2-2-2-2-|-2--2--2-2-2-2-|
|-5-5-5-5-5-5-5-5-|-5-5-5-5-5-5-5--||o-3--3--3-3-3-3-|-2--2--2-2-2-2-|
|-----------------|----------------||----------------|-0--0--0-0-0-0-|
|
|                                  Gtr II (El. Gtr.)
| W                 W                  W               W
|-----------------|----------------||--0-------------|---------------|
|-----------------|----------------||o-1-------------|---------------|
|-----------------|----------------||--0-------------|---------------|
|-----------------|----------------||----------------|---------------|
|-----------------|----------------||o---------------|---------------|
|-----------------|----------------||----------------|---------------|


  F/C                               C               Em
  Q  Q  E E E E   E E E E E E E E   E E Q  E E Q    E E Q  E E Q
|---------------|-----------------|-0-0-0--0-0-0--|-0-0-0--0-0-0--|
|-1--1--1-1-1-1-|-1-1-1-1-1-1-1-1-|-1-1-1--1-1-1--|-0-0-0--0-0-0--|
|-2--2--2-2-2-2-|-2-2-2-2-2-2-2-2-|-0-0-0--0-0-0--|-0-0-0--0-0-0--|
|-3--3--3-3-3-3-|-3-3-3-3-3-3-3-3-|-2-2-2--2-2-2--|-2-2-2--2-2-2--|
|-3--3--3-3-3-3-|-3-3-3-3-3-3-3-3-|-3-3-3--3-3-3--|-2-2-2--2-2-2--|
|---------------|-----------------|---------------|-0-0-0--0-0-0--|


  F/C    Em       Dm             F/C              Em
  Q  E E Q  E E   Q  Q  E E Q    E E Q  E E E E   E E Q  E E E E
|--------0--0-0-|-1--1--1-1-1--|----------------|-0-0-0--0-0-0-0-|
|-1--1-1-0--0-0-|-3--3--3-3-3--|-1-1-1--1-1-1-1-|-0-0-0--0-0-0-0-|
|-2--2-2-0--0-0-|-2--2--2-2-2--|-2-2-2--2-2-2-2-|-0-0-0--0-0-0-0-|
|-3--3-3-2--2-2-|-0--0--0-0-0--|-3-3-3--3-3-3-3-|-2-2-2--2-2-2-2-|
|-3--3-3-2--2-2-|--------------|-3-3-3--3-3-3-3-|-2-2-2--2-2-2-2-|
|--------0--0-0-|--------------|----------------|-0-0-0--0-0-0-0-|


                                  Chorus
  F/C             G/D              F/C     G/D       Em      Am
  Q  E E E E Q    E E Q  E E Q     E E E E E E E E   E E E E E E E E
|---------------|---------------||-----------------|-0-0-0-0-0-0-0-0-|
|-1--1-1-1-1-1--|-3-3-3--3-3-3--||-1-1-1-1-3-3-3-3-|-0-0-0-0-1-1-1-1-|
|-2--2-2-2-2-2--|-4-4-4--4-4-4--||-2-2-2-2-4-4-4-4-|-0-0-0-0-2-2-2-2-|
|-3--3-3-3-3-3--|-5-5-5--5-5-5--||-3-3-3-3-5-5-5-5-|-2-2-2-2-2-2-2-2-|
|-3--3-3-3-3-3--|-5-5-5--5-5-5--||-3-3-3-3-5-5-5-5-|-2-2-2-2-0-0-0-0-|
|---------------|---------------||-----------------|-0-0-0-0---------|


  F/C     G/D       Em      Am        F/C     G/D       Em      Am
  E E E E E E E E   E E E E E E E E   E E E E E E E E   E E E E E E E E
|-----------------|-0-0-0-0-0-0-0-0-|-----------------|-0-0-0-0-0-0-0-0-|
|-1-1-1-1-3-3-3-3-|-0-0-0-0-1-1-1-1-|-1-1-1-1-3-3-3-3-|-0-0-0-0-1-1-1-1-|
|-2-2-2-2-4-4-4-4-|-0-0-0-0-2-2-2-2-|-2-2-2-2-4-4-4-4-|-0-0-0-0-2-2-2-2-|
|-3-3-3-3-5-5-5-5-|-2-2-2-2-2-2-2-2-|-3-3-3-3-5-5-5-5-|-2-2-2-2-2-2-2-2-|
|-3-3-3-3-5-5-5-5-|-2-2-2-2-0-0-0-0-|-3-3-3-3-5-5-5-5-|-2-2-2-2-0-0-0-0-|
|-----------------|-0-0-0-0---------|-----------------|-0-0-0-0---------|


                                      1.
                             To Coda
  F/C                                                     C
  E E E E E E E E   E E E E E E E E    E E E E E E E E    Q  Q  E E E E
|-----------------|------------------|-----------------||-0--0--0-0-0-0--|
|-1-1-1-1-1-1-1-1-|-1-1-1-1-1-1-1-1--|-3-3-3-3-3-3-3-3-||-1--1--1-1-1-1--|
|-2-2-2-2-2-2-2-2-|-2-2-2-2-2-2-2-2--|-4-4-4-4-4-4-4-4-||-0--0--0-0-0-0--|
|-3-3-3-3-3-3-3-3-|-3-3-3-3-3-3-3-3--|-5-5-5-5-5-5-5-5-||-2--2--2-2-2-2--|
|-3-3-3-3-3-3-3-3-|-3-3-3-3-3-3-3-3--|-5-5-5-5-5-5-5-5-||-3--3--3-3-3-3--|
|-----------------|------------------|-----------------||----------------|


                                                    2.
  G/D             F/C             G/D                G/D
  Q  Q  E E E E   Q  Q  E E E E   E E Q  E E E E     E E E E E E E E
|---------------|---------------|-----------------||-----------------|
|-3--3--3-3-3-3-|-1--1--1-1-1-1-|-3-3-3--3-3-3-3-o||-3-3-3-3-3-3-3-3-|
|-4--4--4-4-4-4-|-2--2--2-2-2-2-|-4-4-4--4-4-4-4--||-4-4-4-4-4-4-4-4-|
|-5--5--5-5-5-5-|-3--3--3-3-3-3-|-5-5-5--5-5-5-5--||-5-5-5-5-5-5-5-5-|
|-5--5--5-5-5-5-|-3--3--3-3-3-3-|-5-5-5--5-5-5-5-o||-5-5-5-5-5-5-5-5-|
|---------------|---------------|-----------------||-----------------|


  C                                   A
  E E E E E E E E   E E E E E E E E   E E E E E E E E   E E E E E E E E
|-0-0-0-0-0-0-0-0-|-0-0-0-0-0-0-0-0-|-----------------|-----------------||
|-1-1-1-1-1-1-1-1-|-1-1-1-1-1-1-1-1-|-2-2-2-2-2-2-2-2-|-2-2-2-2-2-2-2-2-||
|-0-0-0-0-0-0-0-0-|-0-0-0-0-0-0-0-0-|-2-2-2-2-2-2-2-2-|-2-2-2-2-2-2-2-2-||
|-2-2-2-2-2-2-2-2-|-2-2-2-2-2-2-2-2-|-2-2-2-2-2-2-2-2-|-2-2-2-2-2-2-2-2-||
|-3-3-3-3-3-3-3-3-|-3-3-3-3-3-3-3-3-|-0-0-0-0-0-0-0-0-|-0-0-0-0-0-0-0-0-||
|-----------------|-----------------|-----------------|-----------------||


 Interlude
  F/C     G/D        Em      Am
  Gtr I
  E E E E E  E E E   E E E E  E E  E E
|------------------|-0-0-0-0--0-0--0-0-|
|-1-1-1-1-3--3-3-3-|-0-0-0-0--1-1--1-1-|
|-2-2-2-2-4--4-4-4-|-0-0-0-0--2-2--2-2-|
|-3-3-3-3-5--5-5-5-|-2-2-2-2--2-2--2-2-|
|-3-3-3-3-5--5-5-5-|-2-2-2-2--0-0--0-0-|
|------------------|-0-0-0-0-----------|
|
| Gtr II
| H       Q.     E   E E E E  E E  E E
|-5-------7------7-|---7-7----8----8---|
|-6-------8------8-|---8-8---10---10---|
|-5-------7------7-|---9-9----9----9---|
|------------------|-------------------|
|------------------|-------------------|
|------------------|-------------------|


  F/C     G/D        Em      Am          F/C     G/D
  E E E E E  E E E   E E E E  E E  E E   E E E E E  E E E
|------------------|-0-0-0-0--0-0--0-0-|------------------|
|-1-1-1-1-3--3-3-3-|-0-0-0-0--1-1--1-1-|-1-1-1-1-3--3-3-3-|
|-2-2-2-2-4--4-4-4-|-0-0-0-0--2-2--2-2-|-2-2-2-2-4--4-4-4-|
|-3-3-3-3-5--5-5-5-|-2-2-2-2--2-2--2-2-|-3-3-3-3-5--5-5-5-|
|-3-3-3-3-5--5-5-5-|-2-2-2-2--0-0--0-0-|-3-3-3-3-5--5-5-5-|
|------------------|-0-0-0-0-----------|------------------|
|
| H       Q.     E   E E E E  E E  E E   H       Q.     E
|-5-------7------7-|---7-7----8----8---|-5-------7------7-|
|-6-------8------8-|---8-8---10---10---|-6-------8------8-|
|-5-------7------7-|---9-9----9----9---|-5-------7------7-|
|------------------|-------------------|------------------|
|------------------|-------------------|------------------|
|------------------|-------------------|------------------|


  Em      Am          F/C
  E E E E  E E  E E   E E E E  E      E  E E
|-0-0-0-0--0-0--0-0-|------------------------|
|-0-0-0-0--1-1--1-1-|-1-1-1-1--1------1--1-1-|
|-0-0-0-0--2-2--2-2-|-2-2-2-2--2------2--2-2-|
|-2-2-2-2--2-2--2-2-|-3-3-3-3--3------3--3-3-|
|-2-2-2-2--0-0--0-0-|-3-3-3-3--3------3--3-3-|
|-0-0-0-0-----------|------------------------|
|
| E E E E  E E  E E   H        E     +Q.
|---7-7----8----8---|---------12b13-(12)-----|
|---8-8---10---10---|------------------------|
|---9-9----9----9---|------------------------|
|-------------------|------------------------|
|-------------------|------------------------|
|-------------------|------------------------|


                                                   D.S. al Coda
                                      G/D
   E  E      E   E  E  E      E   E   E    E E   E E   E E   E
|-----------------------------------|-----------------------------||
|--1--1------1---1--1--1------1---1-|-3----3-3---3-3---3-3---3----||
|--2--2------2---2--2--2------2---2-|-4----4-4---4-4---4-4---4----||
|--3--3------3---3--3--3------3---3-|-5----5-5---5-5---5-5---5----||
|--3--3------3---3--3--3------3---3-|-5----5-5---5-5---5-5---5----||
|-----------------------------------|-----------------------------||
|
|  E.    S  +E   E  E.    S  +E   E   S  S E S S E S S E S S E
|-12---------------10---------------|-8------7-----5-----3--------||
|-------13-(13)----------12-(12)----|---10-----8-----6-----3------||
|---------------12---------------12-|------9-----7-----5-----4----||
|-----------------------------------|-----------------------------||
|-----------------------------------|-----------------------------||
|-----------------------------------|-----------------------------||


                     Out-Chorus
  &
  G/D                 F/C     G/D
  E E E E E E E E     E E E E E E E E
|-----------------||------------------|
|-3-3-3-3-3-3-3-3-||o-1-1-1-1-3-3-3-3-|
|-4-4-4-4-4-4-4-4-||--2-2-2-2-4-4-4-4-|
|-5-5-5-5-5-5-5-5-||--3-3-3-3-5-5-5-5-|
|-5-5-5-5-5-5-5-5-||o-3-3-3-3-5-5-5-5-|
|-----------------||------------------|


  Em      Am        F/C     G/D       Em      Am
  E E E E E E E E   E E E E E E E E   E E E E E E E E
|-0-0-0-0-0-0-0-0-|-----------------|-0-0-0-0-0-0-0-0-|
|-0-0-0-0-1-1-1-1-|-1-1-1-1-3-3-3-3-|-0-0-0-0-1-1-1-1-|
|-0-0-0-0-2-2-2-2-|-2-2-2-2-4-4-4-4-|-0-0-0-0-2-2-2-2-|
|-2-2-2-2-2-2-2-2-|-3-3-3-3-5-5-5-5-|-2-2-2-2-2-2-2-2-|
|-2-2-2-2-0-0-0-0-|-3-3-3-3-5-5-5-5-|-2-2-2-2-0-0-0-0-|
|-0-0-0-0---------|-----------------|-0-0-0-0---------|


  F/C     G/D       Em      Am        F/C
  E E E E E E E E   E E E E E E E E   E E E E E E E E
|-----------------|-0-0-0-0-0-0-0-0-|-----------------|
|-1-1-1-1-3-3-3-3-|-0-0-0-0-1-1-1-1-|-1-1-1-1-1-1-1-1-|
|-2-2-2-2-4-4-4-4-|-0-0-0-0-2-2-2-2-|-2-2-2-2-2-2-2-2-|
|-3-3-3-3-5-5-5-5-|-2-2-2-2-2-2-2-2-|-3-3-3-3-3-3-3-3-|
|-3-3-3-3-5-5-5-5-|-2-2-2-2-0-0-0-0-|-3-3-3-3-3-3-3-3-|
|-----------------|-0-0-0-0---------|-----------------|


                    G/D
  E E E E E E E E   E E E E E E E E  3x
|-----------------|------------------||
|-1-1-1-1-1-1-1-1-|-3-3-3-3-3-3-3-3-o||
|-2-2-2-2-2-2-2-2-|-4-4-4-4-4-4-4-4--||
|-3-3-3-3-3-3-3-3-|-5-5-5-5-5-5-5-5--||
|-3-3-3-3-3-3-3-3-|-5-5-5-5-5-5-5-5-o||
|-----------------|------------------||            
Submit corrections

↑ Back to top | Tablatures and chords for acoustic guitar and electric guitar, ukulele, drums are parodies/interpretations of the original songs. You may use it for private study, scholarship, research or language learning purposes only