» » »

Nickel Creek - When You Come Back Down Tabs

Artists:  A B C D E F G H I J K L M N O P Q R S T U V W X Y Z # 

When You Come Back Down Tabs

(ver. 2) Click to play this song!
Nickel Creek
 Rating:
4/5 (4 votes)

 When You Come Back Down lessons Tabs too difficult? Try these video lessons and learn fast
 
                WHEN YOU COME BACK DOWN
----------------------------------------------------------
NOTES: capo fret 4
----------------------------------------------------------
Chords:
  G  Bm A  D  F#m
e-3--2--0--2--2--
B-3--3--2--3--2--
G-0--4--2--2--2--
A-0--4--2--0--4--
D-2--2--0--X--4--
E-3--2--X--X--2--


Verse 1:
           G                        Bm 
You got to leave me now, you got to go alone,
           G                         Bm
You got to chase a dream, one that's all your own
  A              G
Before it slips away.
            G                     Bm
When you're flyin' high, take my heart along, 
            G                Bm
I'll be the harmony to every lonely song
A                 G
That you learn to play.

Chorus 1:
G                               D    G                   D        
When you're soarin' through the air,  I'll be your solid ground
G                      D   A                Bm  
 Take every chance you dare,  I'll still be there 
A                  G
When you come back down, 
                   D
When you come back down.

Solo: G Bm G Bm A G

Verse 2:
           G                   Bm 
I'll keep lookin' up, awaitin' your return, 
           G                           Bm 
My greatest fear will be that you will crash and burn,  
  A                 G
And I won't feel your fire.  
           G                       Bm
I'll be the other hand that always holds the line
           G                     Bm
Connectin' in between your sweet heart and mine,  
  A                   G
I'm strung out on that wire.

Chorus 2:
                         (Riff A)               (Riff B)
G                        D     G                   D
And I'll be on the other end, To hear you when you call
                         (Riff C----------------->)
G                       D   A               Bm
Angel, you were born to fly, If you get too high 
                         (Riff D)
A                       G
I'll catch you when you fall
                          (Riff E)
                        D
I'll catch you when you fall

Solo: G Bm G Bm A G

Bridge:
     Bm
Your memory's the sunshine every new day brings,  
                  F#m
I know the sky is calling, 
G             D                  A   
Angel, let me help you with your wings

repeat Chorus 1, lines 1 - 3
Tag :  Chorus 1, lines 2 - 4

 Riff A                            Riff B
e-------------------------------||-------------------------------
B-------------------------------||-----------------5/7-5---------
G-------2-----------------------||-------2---2-4-7-------7-4-----
A-0-2-4-----4-7-7-7/9/7---4-2-0-||-0-2-4-------------------------
D-------------------------------||-------------------------------
E-------------------------------||-------------------------------
 
 Riff C                           Riff D
e-------------------------------||-------------------------------
B-2-3--2-3--2-------------------||-------------------------------
G-------------4-2-0-2-4---------||------------2-4----------------
A-------------------------------||-----0--0-4-----5-0------------
D-------------------------------||---2---------------------------
E-------------------------------||-3-----------------------------

 Riff E
 (Play this part leading into mandolin solo)
e-------------------------------
B-------------------------------
G-------------------------------
A-0-2-4-5/4-2-0-----------------
D-------------------------------
E-------------------------------
            
Submit corrections


        When You Come Back Down lessons Hard to play? Try these video lessons and learn fast When You Come Back Down lessons
        
↑ Back to top | Tablatures and chords for acoustic guitar and electric guitar, ukulele, drums are parodies/interpretations of the original songs. You may use it for private study, scholarship, research or language learning purposes only