» » »

Nickel Creek - This Side Tabs

Artists:  A B C D E F G H I J K L M N O P Q R S T U V W X Y Z # 

This Side Tabs

(ver. 2) Click to play this song!
Nickel Creek
 Rating:
4/5 (4 votes)

 This Side lessons Tabs too difficult? Try these video lessons and learn fast
 
                Intro
E--0-----0-----2----2-0---0-0---0----0------0----|--0-----0-----2----2-0---0-0---0----0------0----|
B-----0-----0-----0-----4----------------2^4-420-|-----0-----0-----0-----4----------------2^4-420-|
G-----------------------------2---2-----2-------2|1----------------------------2---2-----2-------2|1
D------------------------------------------------|------------------------------------------------|-2
A------------------------------------------------|------------------------------------------------|
E------------------------------------------------|------------------------------------------------|

Chorus

   E     C#m      A        B               Eadd9     C#add9     Aadd9     Badd9                     G#                   
E|--0----0----0----0---------0-------0--------0------0-------------4---------------------
B|--0----0----0----0---------0-------0--------0------0-------------4---------------------
G|--1----9----6----8---------9-------6--------0------2-------------5---------------------
D|--2----11---7----9---------9-------6--------2------4-------------6---------------------
A|--2----11---7----9---------7-------4--------2------4-------------6---------------------
E|--0----0----0----0---------0-------0--------0------0-------------4---------------------
            
Submit corrections


        This Side lessons Hard to play? Try these video lessons and learn fast This Side lessons
        
↑ Back to top | Tablatures and chords for acoustic guitar and electric guitar, ukulele, drums are parodies/interpretations of the original songs. You may use it for private study, scholarship, research or language learning purposes only