» » »

Nickel Creek - Sweet Afton (mandolin) Tabs

Artists:  A B C D E F G H I J K L M N O P Q R S T U V W X Y Z # 

Sweet Afton (mandolin) Tabs

(ver. 2) Click to play this song!
Nickel Creek
 Rating:
4/5 (4 votes)

 Sweet Afton (mandolin) lessons Tabs too difficult? Try these video lessons and learn fast
 
                Intro and I Think Verse

E------0-0-0------------------------------------------------
A--4-6-------6-2-----0-2-4-2--------0-----------------------
D----------------4-6----------2-4-6---6-4-2-----2-4-2-------
G-------------------------------------------4-6-------------


Violin solo for mandolin

Start with intro then at 2:57 this begins

E------0-0-22------5-4-0--------
A--4-6--------2----------2--0---
D--------------------------5-5--    then continue with intro
G-------------------------------

Listen to song to get the timing down
            
Submit corrections


        Sweet Afton (mandolin) lessons Hard to play? Try these video lessons and learn fast Sweet Afton (mandolin) lessons
        
↑ Back to top | Tablatures and chords for acoustic guitar and electric guitar, ukulele, drums are parodies/interpretations of the original songs. You may use it for private study, scholarship, research or language learning purposes only