» » »

Nickel Creek - Smoothie Song Tabs

Artists:  A B C D E F G H I J K L M N O P Q R S T U V W X Y Z # 

Smoothie Song Tabs

(ver. 3) Click to play this song!
Nickel Creek
 Rating:
4/5 (4 votes)

 Smoothie Song  lessons Tabs too difficult? Try these video lessons and learn fast
 
                (1)

e|----------------|----------------|----------------|----------------|
B|----------------|----------------|----------------|----------------|
G|----------------|------------0---|----------------|----------------|
D|----------------|--------0-2---2-|0---2-0---------|----------------|
A|--2-3-2-3-------|--0-2-3---------|--3-----3-0-----|----------0-----|
D|----------------|----------------|------------5-4-|0-3-0-4-5---4-5-|
  1e&a2e&a3e&a4e&a 1e&a2e&a3e&a4e&a 1e&a2e&a3e&a4e&a 1e&a2e&a3e&a4e&a

e|----------------|----------------|----------0-3-2-|--------------2-|
B|----------------|----------------|----0-1-3-------|1---------------|
G|----------------|0---------------|0-2-------------|----------------|
D|------------0-2-|--4-----2-0-2-4-|----------------|----------------|
A|0-2---0-2-3-----|----------------|----------------|----------------|
D|----5-----------|----------------|----------------|----------------|
  1e&a2e&a3e&a4e&a 1e&a2e&a3e&a4e&a 1e&a2e&a3e&a4e&a 1e&a2e&a3e&a4e&a

e|--------------2-|------0----0----|----1/2---------|----------------|
B|1---------------|1---3---3-1-3-1-|0-3-----3-1---3-|(3)-------------|
G|----------------|----------------|------------2---|----------------|
D|----------------|----------------|----------------|----------------|
A|----------------|----------------|----------------|----------------|
D|----------------|----------------|----------------|----------------|
  1e&a2e&a3e&a4e&a 1e&a2e&a3e&a4e&a 1e&a2e&a3e&a4e&a 1e&a2e&a3e&a4e&a
            
Submit corrections


        Smoothie Song  lessons Hard to play? Try these video lessons and learn fast Smoothie Song  lessons
        
↑ Back to top | Tablatures and chords for acoustic guitar and electric guitar, ukulele, drums are parodies/interpretations of the original songs. You may use it for private study, scholarship, research or language learning purposes only