» » »

Nickelback - I Don Have Tabs

Artists:  A B C D E F G H I J K L M N O P Q R S T U V W X Y Z # 

I Don Have Tabs

(ver. 1) Click to play this song!
Nickelback
 Rating:
4/5 (4 votes)

 I Don	 Have lessons Tabs too difficult? Try these video lessons and learn fast
 
                
Drop D tuning (DADGBe)

b - bend
/ - slide up
\ - slide down
PM - Palm Mute
GPM - Gradually Release Palm Mute


Now for the rythem of the song, I've tabbed how I play, not necessarily how they play
it, so enjoy  :D   Oh, and if there is a mistake.... It means i made a typeo. :P

Intro
e|-------------------------------------
B|-------------------------------------|
G|-------------------------------------|
D|--22--2h4--4--4-2-4b5---2h4--4--4-2--|
A|--22--2h4--4------------2h4--4-------|
D|--22--2h4--4------------2h4--4-------|
PM |--|
                                    
Intro pt.2  x2
e|---------------------------------|
B|---------------------------------|
G|---------------------------------|
D|--2h4--4--4-2-4b5---2h4--4--4-2--|
A|--2h4--4------------2h4--4-------|
D|--2h4--4------------2h4--4-------|


Verse  x3.5
e|------------------------------------|
B|------------------------------------|
G|------------------------------------|
D|--2h4--4--4-2-4b5---2h4--4--0-0-22--|
A|--2h4--4------------2h4--4--0-0-22--|
D|--2h4--4------------2h4--4--0-0-22--|


Pre-Chorus  x2
e|----------------------------------------------|
B|----------------------------------------------|  Play that "last A chord" fast before
G|--5-5-5-5-5--2-2-2-2-2-------------2-2-2-2-2--|  you go into the chorus
D|--5-5-5-5-5--2-2-2-2-2--5-5-5-5-5--2-2-2-2-2--|
A|--2-2-2-2-2--0-0-0-0-0--5-5-5-5-5--0-0-0-0-0--|
D|------------------------5-5-5-5-5-------------|


Chorus  x2
e|---------------------------------|
B|---------------------------------|  Make sure you drag out that "last B chord"
G|--55555---77777---99999---55555--|  before you goin into the fill.
D|--55555---77777---99999---55555--|
A|--22222---55555---77777---22222--|
D|---------------------------------|


Fill
e|-----------------------------------------|
B|-----------------------------------------|
G|-----------------------------------------|
D|--7-7-7-7-7-7-7-7-5-5-5-5-5-5-5-5-55555--|
A|--7-7-7-7-7-7-7-7-5-5-5-5-5-5-5-5-55555--|
D|--7-7-7-7-7-7-7-7-5-5-5-5-5-5-5-5-55555--|


Intro pt.2  x1 

Then play this
e|----------------------------------------|
B|----------------------------------------|
G|----------------------------------------|
D|--2h4--4--4-2-4b5---2h4--4--2h4-2h4-42--|
A|--2h4--4------------2h4--4--2h4-2h4-42--|
D|--2h4--4------------2h4--4--2h4-2h4-42--|
                          PM |----------|

Verse  x3.5


Pre-Chorus  x2


Chorus  x2


Fill Variation
e|-----------------------------------------------------|
B|-----------------------------------------------------|
G|-----------------------------------------------------|
D|--7-7-7-7-7-7-7-7--5-5-5-5-5-5-5-5--7-7-7-7-7-7-7-7--|
A|--7-7-7-7-7-7-7-7--5-5-5-5-5-5-5-5--7-7-7-7-7-7-7-7--|
D|--7-7-7-7-7-7-7-7--5-5-5-5-5-5-5-5--7-7-7-7-7-7-7-7--|


Interlude (that goes for to long)  x to many 
e|--------------------------------------------------|
B|--------------------------------------------------| 
G|--5-5-x5-5-5--------------------------------------|  
D|--5-5-x5-5-5--5-5-x5-5-5--7-7-x7-7-7--7-7-x7-7-7--| 
A|--3-3-x3-3-3--5-5-x5-5-5--7-7-x7-7-7--7-7-x7-7-7--|
D|--------------5-5-x5-5-5--7-7-x7-7-7--7-7-x7-7-7--|


On the last time through, play the 7's like this
e|--------------------------------------------|
B|--------------------------------------------|
G|--------------------------------------------|
D|---7-7-7-7-7-7-7-7-7-77777------------------|
A|---7-7-7-7-7-7-7-7-7-77777------------------|
D|---7-7-7-7-7-7-7-7-7-77777------------------|
GPM |-----------------------|



Chorus  x2



Chorus pt.2  play this for the rest of the song
e|-------------------------------------------------------------|
B|-------------------------------------------------------------|  
G|--5-55-5--5-55---7-77-7--7-77---9-99-9--9-99---5-55-5--5-55--|
D|--5-55-5--5-55---7-77-7--7-77---9-99-9--9-99---5-55-5--5-55--|
A|--2-22-2--2-22---5-55-5--5-55---7-77-7--7-77---2-22-2--2-22--|
D|-------------------------------------------------------------|

Time for Deans Fantastic Lesson Yay...

Unfortunatly there's no solo in this song but if your like me you'll play one
anyway, so... for all those begginers out there... this is the scale you can play in.


A Pentatonic (with a few extra notes)
e|-x-|---|---|-o-|---|-o-|---|
B|-o-|---|---|-o-|---|-x-|---|
G|-o-|---|-o-|---|-o-|---|---|
D|-o-|---|-x-|---|---|---|---|
A|-o-|---|-o-|---|---|---|---|
D|-o-|---|-x-|---|-o-|-o-|---|
   |                        
  \ /
 fret 5                   

I find the best place to play a solo in this song is during the interude since it goes
for so long, so there you have it, Dean's Fantastic lesson, lol, any questions e-mail 
            
Submit corrections


        I Don	 Have lessons Hard to play? Try these video lessons and learn fast I Don	 Have lessons
        
↑ Back to top | Tablatures and chords for acoustic guitar and electric guitar, ukulele, drums are parodies/interpretations of the original songs. You may use it for private study, scholarship, research or language learning purposes only