» » »

Nickelback - Hold Out Your Hand Tabs

Artists:  A B C D E F G H I J K L M N O P Q R S T U V W X Y Z # 

Hold Out Your Hand Tabs

(ver. 1) Click to play this song!
Nickelback
 Rating:
4/5 (4 votes)

 Hold Out Your Hand lessons Tabs too difficult? Try these video lessons and learn fast
 
                Drop D tuning, easy to play. Very accurate I believe. Notes with x's beside
them are palm muted.

-|----------------------------------------------------------------------------
-|----------------------------------------------------------------------------
-|-7/8\7--7/8\7---7/8\7-5/8\7--------7/8\7--7/8\7--x-x---7/8\7-5--------------
-|-7/8\7--7/8\7---7/8\7-5/8\7-3-0----7/8\7--7/8\7--x-x---7/8\7-5--------------
-|-5/6\5--5/6\5---5/6\5-3/6\5-3-0----5/6\5--5/6\5--x-x---5/6\5-3--------------
-|----------------------------3-0---------------------------------------------
                                                                              
-|----------------------------------------------------------------------------
-|----------------------------------------------------------------------------
-|-7/8\7--7/8\7--7/8\7-5/8\7--------------------------------------------------
-|-7/8\7--7/8\7--7/8\7-5/8\7-3-0----------------------------------------(X2)--
-|-5/6\5--5/6\5--5/6\5-3/6\5-3-0----------------------------------------------
-|---------------------------3-0----------------------------------------------
                                                                              
-|----------------------------------------------------------------------------
-|----------------------------------------------------------------------------
-|----------------------------------------------------------------------------
-|-0x-0x-0x-0x-0x-0x-0x-0x-0x-------------------------------------------(X8)--
-|-0x-0x-0x-0x-0x-0x-0x-0x-0x-------------------------------------------------
-|-0x-0x-0x-0x-0x-0x-0x-0x-0x-------------------------------------------------
"All men, with stars upon the chest; save yourselves, your family, don't worry bout the rest"

-|----------------------------------------------------------------------------
-|----------------------------------------------------------------------------
-|-7/8\7--7/8\7--7/8\7-5/8\7--------------------------------------------------
-|-7/8\7--7/8\7--7/8\7-5/8\7-3-0----------------------------------------(X2)--
-|-5/6\5--5/6\5--5/6\5-3/6\5-3-0----------------------------------------------
-|---------------------------3-0----------------------------------------------

-|----------------------------------------------------------------------------
-|----------------------------------------------------------------------------
-|----------------------------------------------------------------------------
-|-0x-0x-0x-0x-0x-0x-0x-0x-0x-------------------------------------------(X8)--
-|-0x-0x-0x-0x-0x-0x-0x-0x-0x-------------------------------------------------
-|-0x-0x-0x-0x-0x-0x-0x-0x-0x-------------------------------------------------
"Small child receives light through the crack; the human mile, they're never coming back"

-|----------------------------------------------------------------------------
-|----------------------------------------------------------------------------
-|----------------------------------------------------------------------------
-|-5-5-5-5-5-5-5-5--8-8-8-8-8-8-8-8-------------------------------------------
-|-5-5-5-5-5-5-5-5--8-8-8-8-8-8-8-8-------------------------------------------
-|-5-5-5-5-5-5-5-5--8-8-8-8-8-8-8-8-------------------------------------------
"Hold out your hand and ask for some"             
      
                                                          
-|----------------------------------------------------------------------------
-|----------------------------------------------------------------------------
-|-7/8\7--7/8\7--7/8\7-5/8\7--------------------------------------------------
-|-7/8\7--7/8\7--7/8\7-5/8\7-3-0----------------------------------------(X2)--
-|-5/6\5--5/6\5--5/6\5-3/6\5-3-0----------------------------------------------
-|---------------------------3-0----------------------------------------------

-|----------------------------------------------------------------------------
-|----------------------------------------------------------------------------
-|----------------------------------------------------------------------------
-|-0x-0x-0x-0x-0x-0x-0x-0x-0x-------------------------------------------(X8)--
-|-0x-0x-0x-0x-0x-0x-0x-0x-0x-------------------------------------------------
-|-0x-0x-0x-0x-0x-0x-0x-0x-0x-------------------------------------------------
"Now and again she sits beneath the tree; the sign above, it reads hard work will set you free"

-|----------------------------------------------------------------------------
-|----------------------------------------------------------------------------
-|----------------------------------------------------------------------------
-|-5-5-5-5-5-5-5-5--8-8-8-8-8-8-8-8-------------------------------------------
-|-5-5-5-5-5-5-5-5--8-8-8-8-8-8-8-8-------------------------------------------
-|-5-5-5-5-5-5-5-5--8-8-8-8-8-8-8-8-------------------------------------------
"Hold out your hand and ask for some" 
                                                                            
-|----------------------------------------------------------------------------
-|----------------------------------------------------------------------------
-|-7/8\7--7/8\7--7/8\7-5/8\7--------------------------------------------------
-|-7/8\7--7/8\7--7/8\7-5/8\7-3-0----------------------------------------(X2)--
-|-5/6\5--5/6\5--5/6\5-3/6\5-3-0----------------------------------------------
-|---------------------------3-0----------------------------------------------

-|----------------------------------------------------------------------------
-|----------------------------------------------------------------------------
-|----------------------------------------------------------------------------
-|-5-5-5-5-5-5-5-5--8-8-8-8-8-8-8-8-------------------------------------------
-|-5-5-5-5-5-5-5-5--8-8-8-8-8-8-8-8-------------------------------------------
-|-5-5-5-5-5-5-5-5--8-8-8-8-8-8-8-8-------------------------------------------
"Hold out your hand and ask for some" 
                                                                            
-|----------------------------------------------------------------------------
-|----------------------------------------------------------------------------
-|-7/8\7--7/8\7--7/8\7-5-5-5-5-5-5--------------------------------------------
-|-7/8\7--7/8\7--7/8\7-5-5-5-5-5-5--------------------------------------------
-|-5/6\5--5/6\5--5/6\5-3-3-3-3-3-3--------------------------------------------
-|----------------------------------------------------------------------------

-|----------------------------------------------------------------------------
-|----------------------------------------------------------------------------
-|----------------------------------------------------------------------------
-|-8-8-8-8-8-8-8-8-8-8-8-8--3-3-3-3-3-3-3-3-3-3-3-3---------------------------
-|-8-8-8-8-8-8-8-8-8-8-8-8--3-3-3-3-3-3-3-3-3-3-3-3---------------------------
-|-8-8-8-8-8-8-8-8-8-8-8-8--3-3-3-3-3-3-3-3-3-3-3-3---------------------------
"Too late for another direction; always what we've got in store"




-|----------------------------------------------------------------------------
-|----------------------------------------------------------------------------
-|----------------------------------------------------------------------------
-|-10-10-10-10-10-10-10-10-10-10-10-10--5-5-5-5-5-5-5-5-5-5-5-5---------------
-|-10-10-10-10-10-10-10-10-10-10-10-10--5-5-5-5-5-5-5-5-5-5-5-5---------------
-|-10-10-10-10-10-10-10-10-10-10-10-10--5-5-5-5-5-5-5-5-5-5-5-5---------------                                                                              
"Hurry back we've all been waiting; we can't take much anymore"

-|----------------------------------------------------------------------------
-|----------------------------------------------------------------------------
-|----------------------------------------------------------------------------
-|-8-8-8-8-8-8-8-8-8-8-8-8--3-3-3-3-3-3-3-3-3-3-3-3---------------------------
-|-8-8-8-8-8-8-8-8-8-8-8-8--3-3-3-3-3-3-3-3-3-3-3-3---------------------------
-|-8-8-8-8-8-8-8-8-8-8-8-8--3-3-3-3-3-3-3-3-3-3-3-3---------------------------
"Where are the days when brothers are brothers; a childless mother"

-|----------------------------------------------------------------------------
-|----------------------------------------------------------------------------
-|----------------------------------------------------------------------------
-|-1-1-1-1---1-1-1-1----------------------------------------------------------
-|-1-1-1-1---1-1-1-1----------------------------------------------------------
-|-1-1-1-1---1-1-1-1----------------------------------------------------------
"Leave it except for; leave it except for one"

<<SOLO PART (I can't get it right... You're welcome to send it to me if you know it, I'll put it in the Tab and give you credit)>>

During solo, play:
-|----------------------------------------------------------------------------
-|----------------------------------------------------------------------------
-|----------------------------------------------------------------------------
-|-0x-0x-0x-0x-0x-0x-0x-0x-0x--------------------------------------------(X8)--
-|-0x-0x-0x-0x-0x-0x-0x-0x-0x-------------------------------------------------
-|-0x-0x-0x-0x-0x-0x-0x-0x-0x-------------------------------------------------


-|----------------------------------------------------------------------------
-|----------------------------------------------------------------------------
-|----------------------------------------------------------------------------
-|-5-5-5-5-5-5-5-5--8-8-8-8-8-8-8-8-------------------------------------------
-|-5-5-5-5-5-5-5-5--8-8-8-8-8-8-8-8-------------------------------------------
-|-5-5-5-5-5-5-5-5--8-8-8-8-8-8-8-8-------------------------------------------
"Hold out your hand and ask for some" 
                                                                            
-|----------------------------------------------------------------------------
-|----------------------------------------------------------------------------
-|-7/8\7--7/8\7--7/8\7-5/8\7--------------------------------------------------
-|-7/8\7--7/8\7--7/8\7-5/8\7-3-0----------------------------------------(X2)--
-|-5/6\5--5/6\5--5/6\5-3/6\5-3-0----------------------------------------------
-|---------------------------3-0----------------------------------------------

-|----------------------------------------------------------------------------
-|----------------------------------------------------------------------------
-|----------------------------------------------------------------------------
-|-5-5-5-5-5-5-5-5--8-8-8-8-8-8-8-8-------------------------------------------
-|-5-5-5-5-5-5-5-5--8-8-8-8-8-8-8-8-------------------------------------------
-|-5-5-5-5-5-5-5-5--8-8-8-8-8-8-8-8-------------------------------------------
"Hold out your hand and ask for some" 
                                             
-|----------------------------------------------------------------------------
-|----------------------------------------------------------------------------
-|-7/8\7--7/8\7--7/8\7-5-5-5-5-5-5--------------------------------------------
-|-7/8\7--7/8\7--7/8\7-5-5-5-5-5-5--------------------------------------------
-|-5/6\5--5/6\5--5/6\5-3-3-3-3-3-3--------------------------------------------
-|----------------------------------------------------------------------------

-|----------------------------------------------------------------------------
-|----------------------------------------------------------------------------
-|----------------------------------------------------------------------------
-|-8-8-8-8-8-8-8-8-8-8-8-8--3-3-3-3-3-3-3-3-3-3-3-3---------------------------
-|-8-8-8-8-8-8-8-8-8-8-8-8--3-3-3-3-3-3-3-3-3-3-3-3---------------------------
-|-8-8-8-8-8-8-8-8-8-8-8-8--3-3-3-3-3-3-3-3-3-3-3-3---------------------------
"Too late for another direction; always what we've got in store"

-|----------------------------------------------------------------------------
-|----------------------------------------------------------------------------
-|----------------------------------------------------------------------------
-|-10-10-10-10-10-10-10-10-10-10-10-10--5-5-5-5-5-5-5-5-5-5-5-5---------------
-|-10-10-10-10-10-10-10-10-10-10-10-10--5-5-5-5-5-5-5-5-5-5-5-5---------------
-|-10-10-10-10-10-10-10-10-10-10-10-10--5-5-5-5-5-5-5-5-5-5-5-5---------------                                                                              
"Hurry back we've all been waiting; we can't take much anymore"

-|----------------------------------------------------------------------------
-|----------------------------------------------------------------------------
-|----------------------------------------------------------------------------
-|-5-5-5-5-5-5-5-5--8-8-8-8-8-8-8-8-------------------------------------(X2)--
-|-5-5-5-5-5-5-5-5--8-8-8-8-8-8-8-8-------------------------------------------
-|-5-5-5-5-5-5-5-5--8-8-8-8-8-8-8-8-------------------------------------------
"Hold out your hand and ask for"

-|----------------------------------------------------------------------------
-|----------------------------------------------------------------------------
-|-----------------------------------7-8-7--7-8-7--7-8-7-5-8-7----------------
-|-5-5-5-5-5-5-5-5--8-8-8-8-8-8-8-8--7-8-7--7-8-7--7-8-7-5-8-7-3-0------------
-|-5-5-5-5-5-5-5-5--8-8-8-8-8-8-8-8--5-6-5--5-6-5--5-6-5-3-6-5-3-0------------
-|-5-5-5-5-5-5-5-5--8-8-8-8-8-8-8-8----------------------------3-0------------
"Hold out your hand and ask for some!"

-|----------------------------------------------------------------------------
-|----------------------------------------------------------------------------
-|-7/8\7--7/8\7--7/8\7-5--8---------------------------------------------------
-|-7/8\7--7/8\7--7/8\7-5--10--------------------------------------------------
-|-5/6\5--5/6\5--5/6\5-3--10--------------------------------------------------
-|----------------------------------------------------------------------------

Enjoy!
            
Submit corrections


        Hold Out Your Hand lessons Hard to play? Try these video lessons and learn fast Hold Out Your Hand lessons
        
↑ Back to top | Tablatures and chords for acoustic guitar and electric guitar, ukulele, drums are parodies/interpretations of the original songs. You may use it for private study, scholarship, research or language learning purposes only