Home » N » Nickelback »

Nickelback - Fly Tabs

Artists:  A B C D E F G H I J K L M N O P Q R S T U V W X Y Z # 

Fly Tabs

(ver. 1) Click to play this song!
Nickelback
 Rating:
4/5 (4 votes)
                Dif.: 6

Verse
E|-6--X-6-6-6--9-X--9--9--9--5--X-5-5-5--7--X-7-7-7--|
B|-6--X-6-6-6--9-X--9--9--9--5--X-5-5-5--7--X-7-7-7--|
G|-7--X-7-7-7-10-X-10-10-10--6--X-6-6-6--8--X-8-8-8--|
D|-8--X-8-8-8-11-X-11-11-11--7--X-7-7-7--9--X-9-9-9--|
A|-8--X-8-8-8-11-X-11-11-11--7--X-7-7-7--9--X-9-9-9--|
E|-6--X-6-6-6--9-X--9--9--9--5--X-5-5-5--7--X-7-7-7--|

Fill 1 ("And I don’t mind....")
E|-6--X-6-6-6--9-X--9--9--9--5--X-5-5-5--7-------------|
B|-6--X-6-6-6--9-X--9--9--9--5--X-5-5-5--7-------------|
G|-7--X-7-7-7-10-X-10-10-10--6--X-6-6-6--8-------------|
D|-8--X-8-8-8-11-X-11-11-11--7--X-7-7-7--9-------------|
A|-8--X-8-8-8-11-X-11-11-11--7--X-7-7-7--9-------------|
E|-6--X-6-6-6--9-X--9--9--9--5--X-5-5-5--7-------------|

Interlude ("Fly, I have learned to....") (Gtr. 1 w/dist.)
D|-4--4--4--4--4--6--6--6--6--6--|-%-|-%-|-4--4--4--4--4--4--6-----|
A|-4--4--4--4--4--6--6--6--6--6--|-%-|-%-|-4--4--4--4--4--4--6-----|
E|-2--2--2--2--2--4--4--4--4--4--|-%-|-%-|-2--2--2--2--2--2--4-----|

Interlude (Gtr. 2) (clean) - Do Guitar 1 interlude but as bar chords and
play clean

Fill 2 (Gtr. 2) (clean)
E|--4---4-4-4-4--|
B|--4---4-4-4-4--|
G|--5---5-5-5-5--|
D|--6---6-6-6-6--|
A|--6---6-6-6-6--|
E|--4---4-4-4-4--|

Chorus (Gtr. 1) (w/dist.)
D|-4--4--4--4--4--6--6--6--6--6--7--7--7--7--7--9--9--9--9--9-|
A|-4--4--4--4--4--6--6--6--6--6--7--7--7--7--7--9--9--9--9--9-|
E|-2--2--2--2--2--4--4--4--4--4--5--5--5--5--5--7--7--7--7--7-| 3x

Chorus (cont.)
D|-4--4--4--4--4--6--6--6--6--6--7--7--7--7--7--9-----------|
A|-4--4--4--4--4--6--6--6--6--6--7--7--7--7--7--9-----------|
E|-2--2--2--2--2--4--4--4--4--4--5--5--5--5--5--7-----------|

Chorus (Gtr. 2) (clean) - Do Guitar 1 Chorus but as bar chords and clean

Song Structure: -
Verse
Fill 1
Interlude (Gtr. 1)/Interlude (Gtr. 2)
Verse
Fill 1 ("I’ll try....")
Interlude (Gtr. 1)/ Interlude (Gtr. 2)
Fill 2
Chorus (Gtr. 1)/Chorus (Gtr. 2)
Verse (w/o lyrics)
Verse ("Father tell your son...")
Fill
Interlude (Gtr. 1)/Interlude (Gtr. 2)
Chorus (Gtr. 1)/Chorus (Gtr. 2)

Ahhh nice song. The last verse is a little varied from the other verses
but I was too lazy to write it out and everything, it’s really it hot
here so that’s why. So if you have any comments, corrections or
            
Submit corrections

↑ Back to top | Tablatures and chords for acoustic guitar and electric guitar, ukulele, drums are parodies/interpretations of the original songs. You may use it for private study, scholarship, research or language learning purposes only