» » »

Nickelback - Diggin This Tabs

Artists:  A B C D E F G H I J K L M N O P Q R S T U V W X Y Z # 

Diggin This Tabs

(ver. 1) Click to play this song!
Nickelback
 Rating:
4.3/5 (12 votes)

 Diggin This  lessons Tabs too difficult? Try these video lessons and learn fast
 
                [Intro]

D|--------------------------------------------------------------------------|
A|--------------------------------------------------------------------------|
F|-----5------5-5-----------------------------------------------------------|
C|-----4------4-4-----------------------------------------------------------| 
G|-----5------5-5--4-5------------------------------------------------------|
C|-2br---2br-------4-5------------------------------------------------------|

D|---------------------------------------------------------------------------|
A|---------------------------------------------------------------------------|
F|-----5-----5-5-----5-------------------------------------------------------|
C|-----4-----4-4-----4-------------------------------------------------------| Repeat
G|-----5-----5-5-----5------4-5----------------------------------------------|
C|-2br---2br-----2br---2br--4-5----------------------------------------------|


[Verse]

D|---------------------------------------------------------------------------|
A|---------------------------------------------------------------------------|
F|-----5------5--5------5----------------------------------------------------| Repeat x2
C|-----4------4--4------4----------------------------------------------------|
G|-----5------5--5------5--4-5-----------------------------------------------|
C|-2br----2br-------2br----4-5-----------------------------------------------|
       *      *  * 


D|--------------------------------------------------------------------------|
A|--------------------------------------------------------------------------|
F|-------5-------5-5-------5------------------------------------------------| Repeat x2
C|-------4-------4-4-------4------------------------------------------------|
G|-5-4---5--5-4--5-5--5-4--5------------------------------------------------|
C|-5-4------5-4-------5-4---------------------------------------------------|


[Chorus]

D|---------------------------------------------------------------------------|
A|---------------------------------------------------------------------------|
F|-5-----------5------5--5-----5---------------------------------------------|
C|-5---5-------4------4--4-----4---------------------------------------------|
G|-3---5-------5------5--5-----5------4-5------------------------------------|
C|-----5---2br----2br------2br---2br--4-5------------------------------------|


[Verse]

D|---------------------------------------------------------------------------|
A|---------------------------------------------------------------------------|
F|-----5------5--5------5----------------------------------------------------| Repeat x2
C|-----4------4--4------4----------------------------------------------------|
G|-----5------5--5------5--4-5-----------------------------------------------|
C|-2br----2br-------2br----4-5-----------------------------------------------|
       *      *  * 


D|--------------------------------------------------------------------------|
A|--------------------------------------------------------------------------|
F|-------5-------5-5-------5------------------------------------------------| Repeat x2
C|-------4-------4-4-------4------------------------------------------------|
G|-5-4---5--5-4--5-5--5-4--5------------------------------------------------|
C|-5-4------5-4-------5-4---------------------------------------------------|


[Chorus]

D|---------------------------------------------------------------------------|
A|---------------------------------------------------------------------------|
F|-5-----------5------5--5-----5---------------------------------------------| Repeat x2
C|-5---5-------4------4--4-----4---------------------------------------------|
G|-3---5-------5------5--5-----5------4-5------------------------------------|
C|-----5---2br----2br------2br---2br--4-5------------------------------------|

[Bridge]


D|--------------------------------------------------------------------------|
A|--------------------------------------------------------------------------|
F|--5--5-5--5--5-5-5--------------------------------------------------------|
C|--4--4-4--4--4-4-4--------------------------------------------------------|
G|--5--5-5--5--5-5-5--------------------------------------------------------|
C|--0--0-0--0--0-0-0--------------------------------------------------------|


D|---------------------------------------------------------------------------|
A|---------------------------------------------------------------------------| Repeat
F|-5--5-5--7--5-5-5----------------------------------------------------------|
C|-4--4-4--6--4-4-4----------------------------------------------------------|
G|-5--5-5--7--5-5-5----------------------------------------------------------|
C|-0--0-0--0--0-0-0----------------------------------------------------------|

[Solo]

D|---------------------------------14---------------------------------------|
A|----------------------------13------13-----------------------------------|
F|---------------11--------------11-----------------------------------------|
C|10h12-12-12-12---12-12-12-------------------------------------------------|
G|--------------------------------------------------------------------------|
C|--------------------------------------------------------------------------|

D|-------------------------------------------------------------------------|
A|-------------------------------------------------------------------------|
F|---------------11----------------------10--------------------------------|
C|10h12-12-12-12----12-12-12-------10-12----12-----------------------------|
G|---------------------------10-12-----------------------------------------|
C|-------------------------------------------------------------------------|

D|---------10-----------------13------------------------------------------|
A|13p10----10----13p10--10/15---15----------------------------------------|
F|------12----x3------x3--------------------------------------------------|
C|------------------------------------------------------------------------|
G|------------------------------------------------------------------------|
C|------------------------------------------------------------------------|

D|-15-14-13--------------------------------------------------------------|
A|---------15-14-13------------------------------------------------------|
F|------------------14-13-12-10-12br-10----------------------------------|
C|--------------------------------------12-10-12~~~-/15~~~~~-------------|
G|-----------------------------------------------------------------------|
C|-----------------------------------------------------------------------|


No guitar after solo


D|--------------------------------------------------------------------------|
A|--------------------------------------------------------------------------|
F|-------5-------5-5-------5------------------------------------------------| Repeat x2
C|-------4-------4-4-------4------------------------------------------------|
G|-5-4---5--5-4--5-5--5-4--5------------------------------------------------|
C|-5-4------5-4-------5-4---------------------------------------------------|


[Chorus]

D|---------------------------------------------------------------------------|
A|---------------------------------------------------------------------------|
F|-5-----------5------5--5-----5---------------------------------------------| Repeat x2
C|-5---5-------4------4--4-----4---------------------------------------------|
G|-3---5-------5------5--5-----5------4-5------------------------------------|
C|-----5---2br----2br------2br---2br--4-5------------------------------------|



[Outro]

D|---------------------------------------------------------------------------|
A|---------------------------------------------------------------------------|
F|------5-----5-5-----5------------------------------------------------------|
C|------4-----4-4-----4------------------------------------------------------|
G|------5-----5-5-----5-----4-5----------------------------------------------|
C|-2br----2br-----2br---2br-4-5----------------------------------------------|            
Submit corrections


        Diggin This  lessons Hard to play? Try these video lessons and learn fast Diggin This  lessons
        
↑ Back to top | Tablatures and chords for acoustic guitar and electric guitar, ukulele, drums are parodies/interpretations of the original songs. You may use it for private study, scholarship, research or language learning purposes only