» » »

Nickelback - Coin For The Ferryman Tabs

Artists:  A B C D E F G H I J K L M N O P Q R S T U V W X Y Z # 

Coin For The Ferryman Tabs

(ver. 1) Click to play this song!
Nickelback
 Rating:
4.3/5 (27 votes)

 Coin For The Ferryman  lessons Tabs too difficult? Try these video lessons and learn fast
 
                BF#BEF#BE Tuning

[Intro]
E |----------------------------------------------------|
B |----------------------------------------------------|
F#|----------------------------------------------------|
E |----------------------------------------------------|
B |----------------------------------------------------|
F#|--------------8-----------------------10-8----------|
B |--0--12-10-12----12-10-12-0--12-10-12-------10-12---|

E |--------------------------------------------------------------------------------|
B |--------------------------------------------------------------------------------|
F#|--------------------------------------------------------------------------------|
E |--------------------------------------------------------------------------------|
B |--------------------------------------------------------------------------------|
F#|--------------------------8-----------------------------------3-----------------|
B |--0-----12----10----12----------12----10----12----3--3--3-----3-----5--5--5-----|

E |--------------------|----------------------------------------------------|
B |--------------------|----------------------------------------------------|
F#|--------------------|----------------------------------------------------|
E |--------------------|----------------------------------------------------|
B |--------------------|----------------------------------------------------|
F#|5-----------7-------|--------------8-----------------------10-8----------|
B |5-----5-----7-------|--0--12-10-12----12-10-12-0--12-10-12-------10-12---|
                                                                             PM----                       
E |--------------------------------------------------------------------------------|
B |--------------------------------------------------------------------------------|
F#|--------------------------------------------------------------------------------|
E |--------------------------------------------------------------------------------|
B |--------------------------------------------------------------------------------|
F#|--------------------------8-----------------------------------3-----------5-----|
B |--0-----12----10----12----------12----10----12----3--3--3-----3-----5--5--5-----|
   -------------|                            
E |--------------------|----------------------------------------------------|
B |--------------------|----------------------------------------------------|
F#|--------------------|----------------------------------------------------|
E |--------------------|----------------------------------------------------|
B |--------------------|----------------------------------------------------|
F#|3-----5-----7-------|--------------8-----------------------10-8----------|
B |3-----5-----7-------|--0--12-10-12----12-10-12-0--12-10-12-------10-12---|

E |--------------------------------------------------------------------------------|
B |--------------------------------------------------------------------------------|
F#|--------------------------------------------------------------------------------|
E |--------------------------------------------------------------------------------|
B |--------------------------------------------------------------------------------|
F#|--------------------------8-----------------------------------3-----------------|
B |--0-----12----10----12----------12----10----12----3--3--3-----3-----5--5--5-----|

E |--------------------|----------------------------------------------------|
B |--------------------|----------------------------------------------------|
F#|--------------------|----------------------------------------------------|
E |--------------------|----------------------------------------------------|
B |--------------------|----------------------------------------------------|
F#|5-----------7-------|--------------8-----------------------10-8----------|
B |5-----5-----7-------|--0--12-10-12----12-10-12-0--12-10-12-------10-12---|
                                                                             PM----                   
E |--------------------------------------------------------------------------------|
B |--------------------------------------------------------------------------------|
F#|--------------------------------------------------------------------------------|
E |--------------------------------------------------------------------------------|
B |--------------------------------------------------------------------------------|
F#|--------------------------8-----------------------------------3-----------5-----|
B |--0-----12----10----12----------12----10----12----3--3--3-----3-----5--5--5-----|
   -------------|            
E |--------------------|
B |--------------------|
F#|--------------------|
E |--------------------|
B |--------------------|
F#|3-----5-----7-------|
B |3-----5-----7-------|

[Verse 1]
E |----------------------------------------------------|
B |----------------------------------------------------|
F#|----------------------------------------------------|
E |----------------------------------------------------|
B |----------------------------------------------------|
F#|--3--0----------------------------------------------|
B |--3--0----------------------------------------------|

E |----------------------------------------------------|
B |----------------------------------------------------|
F#|----------------------------------------------------|
E |----------------------------------------------------|
B |----------------------------------------------------|
F#|--------------3--0----------------------------------|
B |--3--3--3--3--3--0----------------------------------|

E |----------------------------------------------------|
B |----------------------------------------------------|
F#|----------------------------------------------------|
E |----------------------------------------------------|
B |----------------------------------------------------|
F#|--------------3--5--------5-------------------------|
B |--3--3--3--3--3--5--5--5--5-------------------------|

E |----------------------------------------------------|
B |----------------------------------------------------|
F#|----------------------------------------------------|
E |----------------------------------------------------|
B |----------------------------------------------------|
F#|--------10-10----10-------------------5--3--5--7----|
B |--------10-10----10-------3--3--3--3--5--3--5--7----|

E |----------------------------------------------------|
B |----------------------------------------------------|
F#|----------------------------------------------------|
E |----------------------------------------------------|
B |----------------------------------------------------|
F#|--3--0----------------------------------------------|
B |--3--0----------------------------------------------|

E |----------------------------------------------------|
B |----------------------------------------------------|
F#|----------------------------------------------------|
E |----------------------------------------------------|
B |----------------------------------------------------|
F#|--------------3--0----------------------------------|
B |--3--3--3--3--3--0----------------------------------|

E |----------------------------------------------------|
B |----------------------------------------------------|
F#|----------------------------------------------------|
E |----------------------------------------------------|
B |----------------------------------------------------|
F#|--------------3--5--------5-------------------------|
B |--3--3--3--3--3--5--5--5--5-------------------------|

E |----------------------------------------------------|
B |----------------------------------------------------|
F#|----------------------------------------------------|
E |----------------------------------------------------|
B |----------------------------------------------------|
F#|--------10-10----10-------------------5--3--5--7----|
B |--------10-10----10-------3--3--3--3--5--3--5--7----|

E |----------------------------------------------------|
B |----------------------------------------------------|
F#|----------------------------------------------------|
E |----------------------------------------------------|
B |----------------------------------------------------|
F#|--------------8-----------------------10-8----------|
B |--0--12-10-12----12-10-12-0--12-10-12-------10-12---|
                                                                             PM----              
E |--------------------------------------------------------------------------------|
B |--------------------------------------------------------------------------------|
F#|--------------------------------------------------------------------------------|
E |--------------------------------------------------------------------------------|
B |--------------------------------------------------------------------------------|
F#|--------------------------8-----------------------------------3-----------5-----|
B |--0-----12----10----12----------12----10----12----3--3--3-----3-----5--5--5-----|
   -------------|            
E |--------------------|----------------------------------------------------|
B |--------------------|----------------------------------------------------|
F#|--------------------|----------------------------------------------------|
E |--------------------|----------------------------------------------------|
B |--------------------|----------------------------------------------------|
F#|3-----5-----7-------|--------------8-----------------------10-8----------|
B |3-----5-----7-------|--0--12-10-12----12-10-12-0--12-10-12-------10-12---|

E |--------------------------------------------------------------------------------|
B |--------------------------------------------------------------------------------|
F#|--------------------------------------------------------------------------------|
E |--------------------------------------------------------------------------------|
B |--------------------------------------------------------------------------------|
F#|--------------------------8-----------------------------------3-----------------|
B |--0-----12----10----12----------12----10----12----3--3--3-----3-----5--5--5-----|

E |--------------------|----------------------------------------------------|
B |--------------------|----------------------------------------------------|
F#|--------------------|----------------------------------------------------|
E |--------------------|----------------------------------------------------|
B |--------------------|----------------------------------------------------|
F#|5-----------7-------|--------------8-----------------------10-8----------|
B |5-----5-----7-------|--0--12-10-12----12-10-12-0--12-10-12-------10-12---|
                                                                             PM----         
E |--------------------------------------------------------------------------------|
B |--------------------------------------------------------------------------------|
F#|--------------------------------------------------------------------------------|
E |--------------------------------------------------------------------------------|
B |--------------------------------------------------------------------------------|
F#|--------------------------8-----------------------------------3-----------5-----|
B |--0-----12----10----12----------12----10----12----3--3--3-----3-----5--5--5-----|
   -------------|            
E |--------------------|
B |--------------------|
F#|--------------------|
E |--------------------|
B |--------------------|
F#|3-----5-----7-------|
B |3-----5-----7-------|

[Verse 2]
E |----------------------------------------------------|
B |----------------------------------------------------|
F#|----------------------------------------------------|
E |----------------------------------------------------|
B |----------------------------------------------------|
F#|--3--0----------------------------------------------|
B |--3--0----------------------------------------------|

E |----------------------------------------------------|
B |----------------------------------------------------|
F#|----------------------------------------------------|
E |----------------------------------------------------|
B |----------------------------------------------------|
F#|--------------3--0----------------------------------|
B |--3--3--3--3--3--0----------------------------------|

E |----------------------------------------------------|
B |----------------------------------------------------|
F#|----------------------------------------------------|
E |----------------------------------------------------|
B |----------------------------------------------------|
F#|--------------3--5--------5-------------------------|
B |--3--3--3--3--3--5--5--5--5-------------------------|

E |----------------------------------------------------|
B |----------------------------------------------------|
F#|----------------------------------------------------|
E |----------------------------------------------------|
B |----------------------------------------------------|
F#|--------10-10----10-------------------5--3--5--7----|
B |--------10-10----10-------3--3--3--3--5--3--5--7----|

E |----------------------------------------------------|
B |----------------------------------------------------|
F#|----------------------------------------------------|
E |----------------------------------------------------|
B |----------------------------------------------------|
F#|--3--0----------------------------------------------|
B |--3--0----------------------------------------------|

E |----------------------------------------------------|
B |----------------------------------------------------|
F#|----------------------------------------------------|
E |----------------------------------------------------|
B |----------------------------------------------------|
F#|--------------3--0----------------------------------|
B |--3--3--3--3--3--0----------------------------------|

E |----------------------------------------------------|
B |----------------------------------------------------|
F#|----------------------------------------------------|
E |----------------------------------------------------|
B |----------------------------------------------------|
F#|--------------3--5--------5-------------------------|
B |--3--3--3--3--3--5--5--5--5-------------------------|

E |----------------------------------------------------|-------|-------|-------|
B |----------------------------------------------------|-------|-------|-------|
F#|----------------------------------------------------|-------|-------|-------|
E |----------------------------------------------------|-------|-------|-------|
B |----------------------------------------------------|-------|-------|-------|
F#|--------10-10----10-------------------5--3--5--7----|--0----|-------|-------|
B |--------10-10----10-------3--3--3--3--5--3--5--7----|--0----|-------|-------|

[Chorus]
E |----------------------------------------------------|
B |----------------------------------------------------|
F#|----------------------------------------------------|
E |----------------------------------------------------|
B |----------------------------------------------------|
F#|--3--0--------0--------------10-------10-3--5--3----|
B |--3--0--0--0--0--0--0--0--0--10-10-10-10-3--5--3----|

E |----------------------------------------------------|
B |----------------------------------------------------|
F#|----------------------------------------------------|
E |----------------------------------------------------|
B |----------------------------------------------------|
F#|--3--0--------0--------------10-------3--5--3--5----|
B |--3--0--0--0--0--0--0--0--0--10-10-10-3--5--3--5----|

E |----------------------------------------------------|
B |----------------------------------------------------|
F#|----------------------------------------------------|
E |----------------------------------------------------|
B |----------------------------------------------------|
F#|--3--5--------5--------------10-------5--3--5--3----|
B |--3--5--5--5--5--5--5--5--5--10-10-10-5--3--5--3----|

E |----------------------------------------------------|-------|-------|-------|
B |----------------------------------------------------|-------|-------|-------|
F#|----------------------------------------------------|-------|-------|-------|
E |----------------------------------------------------|-------|-------|-------|
B |----------------------------------------------------|-------|-------|-------|
F#|--3--5--------5--------------10-------5--3--5--3----|--3----|--5----|-------|
B |--3--5--5--5--5--5--5--5--5--10-10-10-5--3--5--3----|--3----|--5----|-------|

E |----------------------------------------------------|
B |----------------------------------------------------|
F#|----------------------------------------------------|
E |----------------------------------------------------|
B |----------------------------------------------------|
F#|--------------8-----------------------10-8----------|
B |--0--12-10-12----12-10-12-0--12-10-12-------10-12---|

E |--------------------------------------------------------------------------------|
B |--------------------------------------------------------------------------------|
F#|--------------------------------------------------------------------------------|
E |--------------------------------------------------------------------------------|
B |--------------------------------------------------------------------------------|
F#|--------------------------8-----------------------------------3-----------------|
B |--0-----12----10----12----------12----10----12----3--3--3-----3-----5--5--5-----|

E |--------------------|----------------------------------------------------|
B |--------------------|----------------------------------------------------|
F#|--------------------|----------------------------------------------------|
E |--------------------|----------------------------------------------------|
B |--------------------|----------------------------------------------------|
F#|5-----------7-------|----------------------------------------------------|
B |5-----5-----7-------|----------------------------------------------------|

E |----------------------------------------------------|
B |----------------------------------------------------|
F#|----------------------------------------------------|
E |----------------------------------------------------|
B |----------------------------------------------------|
F#|--------------8-----------------------10-8----------|
B |--0--12-10-12----12-10-12-0--12-10-12-------10-12---|

E |--------------------------------------------------------------------------------|
B |--------------------------------------------------------------------------------|
F#|--------------------------------------------------------------------------------|
E |--------------------------------------------------------------------------------|
B |--------------------------------------------------------------------------------|
F#|--------------------------8-----------------------------------3-----------------|
B |--0-----12----10----12----------12----10----12----3--3--3-----3-----5--5--5-----|

E |--------------------|
B |--------------------|
F#|--------------------|
E |--------------------|
B |--------------------|
F#|5-----------7-------|
B |5-----5-----7-------|

[Verse 3]
E |----------------------------------------------------|
B |----------------------------------------------------|
F#|----------------------------------------------------|
E |----------------------------------------------------|
B |----------------------------------------------------|
F#|--3--0----------------------------------------------|
B |--3--0----------------------------------------------|

E |----------------------------------------------------|
B |----------------------------------------------------|
F#|----------------------------------------------------|
E |----------------------------------------------------|
B |----------------------------------------------------|
F#|--------------3--0----------------------------------|
B |--3--3--3--3--3--0----------------------------------|

E |----------------------------------------------------|
B |----------------------------------------------------|
F#|----------------------------------------------------|
E |----------------------------------------------------|
B |----------------------------------------------------|
F#|--------------3--5--------5-------------------------|
B |--3--3--3--3--3--5--5--5--5-------------------------|

E |----------------------------------------------------|
B |----------------------------------------------------|
F#|----------------------------------------------------|
E |----------------------------------------------------|
B |----------------------------------------------------|
F#|--------10-10----10-------------------5--3--5--7----|
B |--------10-10----10-------3--3--3--3--5--3--5--7----|

E |----------------------------------------------------|
B |----------------------------------------------------|
F#|----------------------------------------------------|
E |----------------------------------------------------|
B |----------------------------------------------------|
F#|--3--0----------------------------------------------|
B |--3--0----------------------------------------------|

E |----------------------------------------------------|
B |----------------------------------------------------|
F#|----------------------------------------------------|
E |----------------------------------------------------|
B |----------------------------------------------------|
F#|--------------3--0----------------------------------|
B |--3--3--3--3--3--0----------------------------------|

E |----------------------------------------------------|
B |----------------------------------------------------|
F#|----------------------------------------------------|
E |----------------------------------------------------|
B |----------------------------------------------------|
F#|--------------3--5--------5-------------------------|
B |--3--3--3--3--3--5--5--5--5-------------------------|

E |----------------------------------------------------|-------|-------|-------|
B |----------------------------------------------------|-------|-------|-------|
F#|----------------------------------------------------|-------|-------|-------|
E |----------------------------------------------------|-------|-------|-------|
B |----------------------------------------------------|-------|-------|-------|
F#|--------10-10----10-------------------5--3--5--7----|--0----|-------|-------|
B |--------10-10----10-------3--3--3--3--5--3--5--7----|--0----|-------|-------|

[Chorus]
E |----------------------------------------------------|
B |----------------------------------------------------|
F#|----------------------------------------------------|
E |----------------------------------------------------|
B |----------------------------------------------------|
F#|--3--0--------0--------------10-------10-3--5--3----|
B |--3--0--0--0--0--0--0--0--0--10-10-10-10-3--5--3----|

E |----------------------------------------------------|
B |----------------------------------------------------|
F#|----------------------------------------------------|
E |----------------------------------------------------|
B |----------------------------------------------------|
F#|--3--0--------0--------------10-------3--5--3--5----|
B |--3--0--0--0--0--0--0--0--0--10-10-10-3--5--3--5----|

E |----------------------------------------------------|
B |----------------------------------------------------|
F#|----------------------------------------------------|
E |----------------------------------------------------|
B |----------------------------------------------------|
F#|--3--5--------5--------------10-------5--3--5--3----|
B |--3--5--5--5--5--5--5--5--5--10-10-10-5--3--5--3----|

E |----------------------------------------------------|-------|-------|-------|
B |----------------------------------------------------|-------|-------|-------|
F#|----------------------------------------------------|-------|-------|-------|
E |----------------------------------------------------|-------|-------|-------|
B |----------------------------------------------------|-------|-------|-------|
F#|--3--5--------5--------------10-------5--3--5--3----|--3----|--5----|-------|
B |--3--5--5--5--5--5--5--5--5--10-10-10-5--3--5--3----|--3----|--5----|-------|

E |----------------------------------------------------|
B |----------------------------------------------------|
F#|----------------------------------------------------|
E |----------------------------------------------------|
B |----------------------------------------------------|
F#|--------------8-----------------------10-8----------|
B |--0--12-10-12----12-10-12-0--12-10-12-------10-12---|

E |--------------------------------------------------------------------------------|
B |--------------------------------------------------------------------------------|
F#|--------------------------------------------------------------------------------|
E |--------------------------------------------------------------------------------|
B |--------------------------------------------------------------------------------|
F#|--------------------------8-----------------------------------3-----------------|
B |--0-----12----10----12----------12----10----12----3--3--3-----3-----5--5--5-----|

E |--------------------|----------------------------------------------------|
B |--------------------|----------------------------------------------------|
F#|--------------------|----------------------------------------------------|
E |--------------------|----------------------------------------------------|
B |--------------------|----------------------------------------------------|
F#|5-----------7-------|----------------------------------------------------|
B |5-----5-----7-------|----------------------------------------------------|

E |----------------------------------------------------|
B |----------------------------------------------------|
F#|----------------------------------------------------|
E |----------------------------------------------------|
B |----------------------------------------------------|
F#|--------------8-----------------------10-8----------|
B |--0--12-10-12----12-10-12-0--12-10-12-------10-12---|

E |--------------------------------------------------------------------------------|
B |--------------------------------------------------------------------------------|
F#|--------------------------------------------------------------------------------|
E |--------------------------------------------------------------------------------|
B |--------------------------------------------------------------------------------|
F#|--------------------------8-----------------------------------3-----------------|
B |--0-----12----10----12----------12----10----12----3--3--3-----3-----5--5--5-----|

E |--------------------|
B |--------------------|
F#|--------------------|
E |--------------------|
B |--------------------|
F#|5-----------7-------|
B |5-----5-----7-------|            
Submit corrections


        Coin For The Ferryman  lessons Hard to play? Try these video lessons and learn fast Coin For The Ferryman  lessons
        
↑ Back to top | Tablatures and chords for acoustic guitar and electric guitar, ukulele, drums are parodies/interpretations of the original songs. You may use it for private study, scholarship, research or language learning purposes only