Home » N » Nick Cave And The Bad Seeds »

Nick Cave And The Bad Seeds - Red Right Hand Bass

Artists:  A B C D E F G H I J K L M N O P Q R S T U V W X Y Z # 

Red Right Hand Bass

(ver. 1) Click to play this song!
Nick Cave And The Bad Seeds
[Intro]
 
G|-------2--------------2--2-------------------------------------------------|
D|----4-----4--2-----4--------4--2-------------------------------------------| x 4 times
A|----------------2----------------------------------------------------------|
E|---------------------------------------------------------------------------|
 
 
[Verse 1]
 
G|-------2--------------2--2-------------------------------------------------|
D|----4-----4--2-----4--------4--2-------------------------------------------| x 4 times
A|----------------2----------------------------------------------------------|
E|---------------------------------------------------------------------------|
 
G|---------------------------------------------------------------------------|
D|-------0--------------0--0-------------------------------------------------| x 2 times
A|----2-----2--0-----2--------2--2-------------------------------------------|
E|----------------0----------------------------------------------------------|
 
G|-------2--------------2--2-------------------------------------------------|
D|----4-----4--2-----4--------4--2-------------------------------------------| x 2 times
A|----------------2----------------------------------------------------------|
E|---------------------------------------------------------------------------|
 
 
[Verse 2]
 
G|-------2--------------2--2-------------------------------------------------|
D|----4-----4--2-----4--------4--2-------------------------------------------| x 4 times
A|----------------2----------------------------------------------------------|
E|---------------------------------------------------------------------------|
 
G|---------------------------------------------------------------------------|
D|-------0--------------0--0-------------------------------------------------| x 2 times
A|----2-----2--0-----2--------2--2-------------------------------------------|
E|----------------0----------------------------------------------------------|
 
G|-------2--------------2--2-------------------------------------------------|
D|----4-----4--2-----4--------4--2-------------------------------------------| x 2 times
A|----------------2----------------------------------------------------------|
E|---------------------------------------------------------------------------|
 
 
[Verse 3]
 
G|-------2--------------2--2-------------------------------------------------|
D|----4-----4--2-----4--------4--2-------------------------------------------| x 4 times
A|----------------2----------------------------------------------------------|
E|---------------------------------------------------------------------------|
 
G|---------------------------------------------------------------------------|
D|-------0--------------0--0-------------------------------------------------| x 2 times
A|----2-----2--0-----2--------2--2-------------------------------------------|
E|----------------0----------------------------------------------------------|
 
G|-------2--------------2--2-------------------------------------------------|
D|----4-----4--2-----4--------4--2-------------------------------------------| x 2 times
A|----------------2----------------------------------------------------------|
E|---------------------------------------------------------------------------|
 
 
[Intrumental]
 
G|---------------------------------------------------------------------------|
D|------4--4-----4--4--4--4--4--4--3-----------------------------------------| x 4 times
A|---4--------4--------------------------------------------------------------|
E|---------------------------------------------------------------------------|
 
G|---------------------------------------------------------------------------|
D|-------0--------------0--0-------------------------------------------------| x 1 times
A|----2-----2--0-----2--------2--0-------------------------------------------|
E|----------------0----------------------------------------------------------|
 
G|-------2--------------2--2-------------------------------------------------|
D|----4-----4--2-----4--------4--2-------------------------------------------| x 2 times
A|----------------2----------------------------------------------------------|
E|---------------------------------------------------------------------------|
 
 
[Verse 4]
 
G|-------2--------------2--2-------------------------------------------------|
D|----4-----4--2-----4--------4--2-------------------------------------------| x 4 times
A|----------------2----------------------------------------------------------|
E|---------------------------------------------------------------------------|
 
G|---------------------------------------------------------------------------|
D|-------0--------------0--0-------------------------------------------------| x 2 times
A|----2-----2--0-----2--------2--2-------------------------------------------|
E|----------------0----------------------------------------------------------|
 
G|-------2--------------2--2-------------------------------------------------|
D|----4-----4--2-----4--------4--2-------------------------------------------| x 2 times
A|----------------2----------------------------------------------------------|
E|---------------------------------------------------------------------------|
 
 
[Outro]
 
G|---------------------------------------------------------------------------|
D|----2--4--2--0--2--0----------------------------------0--2-----------------|
A|----------------------4--5--4--------0------2------4-----------------------|
E|---------------------------------------------------------------------------|
 
G|---2--0-----2--0--------------0--------0------------0----------------------|
D|---------4--------4--0--2--4--------------4--2--0------4--2--0--2--0-------|
A|---------------------------------------------------------------------------|
E|---------------------------------------------------------------------------|
            
Submit corrections

↑ Back to top | Tablatures and chords for acoustic guitar and electric guitar, ukulele, drums are parodies/interpretations of the original songs. You may use it for private study, scholarship, research or language learning purposes only