Home » N » Nick Cave And The Bad Seeds »

Nick Cave And The Bad Seeds - O Children Bass

Artists:  A B C D E F G H I J K L M N O P Q R S T U V W X Y Z # 

O Children Bass

(ver. 1) Click to play this song!
Nick Cave And The Bad Seeds
 
BASS TABS

VERSE
G|------------|------------|------------|------------|
D|------------|-2----------|-2-----2----|-------0----|
A|------------|----------2-|------------|------------|
E|-0----------|------------|------------|------------|


G|------------|------------|------------|------------|
D|------------|------------|------------|------------|
A|-3----------|-3----------|-3-----3----|-------2----|
E|------------|----------3-|------------|------------|


G|------------|------------|------------|------------|
D|------------|------------|------------|------------|
A|-0----------|-0----------|-0-----0----|-------0----|
E|------------|----------0-|------------|------------|


G|------------|------------|------------|------------|
D|------------|------------|------------|------------|
A|------------|------------|------------|------------|
E|-3----------|-3--------3-|-3-----3----|-------2----|


CHORUS
G|------------|------------|------------|------------|
D|------------|-2----------|-2-----2----|-------0----|
A|------------|----------2-|------------|------------|
E|-0----------|------------|------------|------------|


G|------------|------------|------------|------------|
D|------------|------------|------------|------------|
A|-3----------|-3----------|-3-----3----|-------3----|
E|------------|----------3-|------------|------------|


G|------------|------------|------------|------------|
D|------------|------------|------------|------------|
A|------------|------------|------------|------------|
E|-3----------|-3--------3-|-3-----3----|-------3----|


G|------------|------------|------------|------------|
D|-0----------|-0----------|-0-----0----|-------1----|
A|------------|----------0-|------------|------------|
E|------------|------------|------------|------------|

SEQUENCE:
---------
VERSE X5

CHORUS X2

VERSE X4

CHORUS X2

VERSE X3

CHORUS X2

VERSE X5  (Fade Out)
            
Submit corrections

↑ Back to top | Tablatures and chords for acoustic guitar and electric guitar, ukulele, drums are parodies/interpretations of the original songs. You may use it for private study, scholarship, research or language learning purposes only