» » »

New Politics - Harlem Tabs

Artists:  A B C D E F G H I J K L M N O P Q R S T U V W X Y Z # 

Harlem Tabs

(ver. 3) Click to play this song!
New Politics
 Rating:
4/5 (4 votes)

 Harlem lessons Tabs too difficult? Try these video lessons and learn fast
 
                Okay, no one seems to be able o tab this song, so I decided someone had to do it right. 
Here it is.

New Politics
Standard Tuning



Intro
e|---------------|
B|---------------|
G|---------------|
D|---------------|  Play this four times
A|-----4-4-----4-|
E|-2-2-----2-2---|


Verse
e|---------------|
B|---------------|
G|---------------|
D|---------------|   Play this also four times
A|--------4-4--4-|
E|-2-2--2--------|


Pre-Chorus
e|----------------------|
B|----------------------|
G|-------444-------44/6-|
D|-4-4-4-444-4-4-4-44/6-|
A|-4-4-4-222-4-4-4-22/4-|
E|-2-2-2-----2-2-2------|


Chorus
e|------------------------------------|
B|----------33333333-6666666666666666-|
G|----------33333333-6666666666666666-|
D|-44444444-11111111-4444444444444444-|    Play through twice
A|-44444444---------------------------|
E|-22222222---------------------------|


Intro
e|---------------|
B|---------------|
G|---------------|
D|---------------|  Play this twice
A|-----4-4-----4-|
E|-2-2-----2-2---|


Verse 2
e|---------------|
B|---------------|
G|---------------|
D|---------------|   Play this four times
A|--------4-4--4-|
E|-2-2--2--------|


Pre-Chorus
e|----------------------|
B|----------------------|
G|-------444-------44/6-|
D|-4-4-4-444-4-4-4-44/6-|   Play twice
A|-4-4-4-222-4-4-4-22/4-|
E|-2-2-2-----2-2-2------|


Chorus
e|------------------------------------|
B|----------33333333-6666666666666666-|
G|----------33333333-6666666666666666-|
D|-44444444-11111111-4444444444444444-|    Play through four times
A|-44444444---------------------------|
E|-22222222---------------------------|


I don't hear anything particular in the part after the second chorus before the bridge, 
but you can play the intro again or just leave it drums.


Bridge-PALM MUTED
e|-----------------------------------------------------------------|
B|-----------------------------------------------------------------|
G|-----------------------------------------------------------------|
D|-----------------4-4-4-4-4-4-4-4---------------------------------|Play 2x
A|-4-4-4-4-4-4-4-4-2-2-2-2-2-2-2-2-4-4-4-4-4-4-4-4-4-4-4-4-4-4-4-4-|
E|-2-2-2-2-2-2-2-2-----------------2-2-2-2-2-2-2-2-2-2-2-2-2-2-2-2-|


Pre-Chorus
e|----------------------|
B|----------------------|
G|-------444-------44/6-|
D|-4-4-4-444-4-4-4-44/6-|
A|-4-4-4-222-4-4-4-22/4-|
E|-2-2-2-----2-2-2------|


Chorus
e|------------------------------------|
B|----------33333333-6666666666666666-|
G|----------33333333-6666666666666666-|
D|-44444444-11111111-4444444444444444-|    Play through four times
A|-44444444---------------------------|
E|-22222222---------------------------|


And there you go, Harlem by New Politics :) Have fun with it. The lyrics are below.


I spend my money on the regular miracles
 Just like you, like me, like everybody else.
 Up on the sun, lookin' sad and beautiful
 Just like you, like me, like everybody else.

 (When it gets loud, I turn it up)
 Shake it like a bad girl up in Harlem
 (When it's too hot, I light it up)
 Ooh, light it up, yeah, smoke em if you got 'em

 Here come the jets, hide my money in your tube socks
 Run like me, like hell, like everybody else
 Hair metal on a Japanese boom box
 Kicks like you, like me, like everybody else

 (When it gets loud, I turn it up)
 Shake it like a bad girl up in Harlem
 (When it's too hot, I light it up)
 Light it up, yeah, smoke em if you got 'em
 (When it's too soft, I shake it up)
 Sh-Sh-Sh-Shake it like a bad girl up in Harlem
 (You're so sweet, but I like it rough)
 Ooh, light it up, yeah, smoke em if you got 'em

 Makin' a movie on the couch with a flip phone
 Just like you, like I, like fingers in your mouth.
 Up on the sun, playing drums with a bleached bone
 Just like you, like me, like everybody else.

 (When it gets loud, I turn it up)
 Shake it like a bad girl up in Harlem
 (When it's too hot, I light it up)
 Light it up, yeah, smoke 'em if you got 'em
 (When it's too soft, I shake it up)
 Like I look at a bad girl up in Harlem
 (You're so sweet, but I like it rough)
 Ooh, light it up, yeah, smoke 'em if you got 'em
            
Submit corrections


        Harlem lessons Hard to play? Try these video lessons and learn fast Harlem lessons
        
↑ Back to top | Tablatures and chords for acoustic guitar and electric guitar, ukulele, drums are parodies/interpretations of the original songs. You may use it for private study, scholarship, research or language learning purposes only