Home » N » New Politics »

New Politics - Harlem Bass

Artists:  A B C D E F G H I J K L M N O P Q R S T U V W X Y Z # 

Harlem Bass

(ver. 1) Click to play this song!
New Politics
Intro:

G|--------------------------------------------------|
D|--------4--4--------4-----------4--4--------4-----|
A|--------------------------------------------------|
E|--2--2--------2--2--------2--2--------2--2--------|   (x2)    

Verse 1:

I spend my money on the regular miracles, just like you, like me, like everybody else

G|----------------------------------------------------------------------------------------------|
D|--------4--4--------4-----------9--9--------9\---------4--4--------4-----------4--4-----------|
A|----------------------------------------------------------------------------------------------|
E|--2--2--------2--2--------7--7--------7--7-------2--2--------2--2--------2--2--------2--2-----|       

Up on the sun lookin' sad and beautiful, just like you, like me, like everybody else

G|----------------------------------------------------------------------------------------------|
D|--------4--4--------4-----------9--9--------9\---------4--4--------4-----------4--4-----------|
A|----------------------------------------------------------------------------------------------|
E|--2--2--------2--2--------7--7--------7--7-------2--2--------2--2--------2--2--------2--2-----|


(Guitar Only)


Chorus:

When it gets loud, I turn it up. Oh, shake it like a bad girl up in Harlem

G|------------------------------------------------------------------------------------------------------|
D|--------4-----------4-----------8-----------8-----------11--11--------11-----------11-----------11\---|
A|------------------------------------------------------------------------------------------------------|
E|--2--2-----2--2--2-----2--6--6-----6--6--6-----6--9--9----------9--9------9--9--9------9--9--9--------|

When it's too hot, I light it up. Oh, light it up, yeah, smoke 'em if you got 'em

G|------------------------------------------------------------------------------------------------------|
D|--------4-----------4-----------8-----------8-----------11--11--------11-----------11-----------11\---|
A|------------------------------------------------------------------------------------------------------|
E|--2--2-----2--2--2-----2--6--6-----6--6--6-----6--9--9----------9--9------9--9--9------9--9--9--------|

Pre-Verse (Intro):

G|--------------------------------------------------|
D|--------4--4--------4-----------4--4--------4-----|
A|--------------------------------------------------|
E|--2--2--------2--2--------2--2--------2--2--------|

Verse 2:

Here come the Jets, hide my money in your tube socks, run like me, like hell, like everybody else

G|----------------------------------------------------------------------------------------------|
D|--------4--4--------4-----------9--9--------9\---------4--4--------4-----------4--4-----------|
A|----------------------------------------------------------------------------------------------|
E|--2--2--------2--2--------7--7--------7--7-------2--2--------2--2--------2--2--------2--2-----|

Hair metal on a Japanese boombox, kicks like you, like me, like everybody else

G|----------------------------------------------------------------------------------------------|
D|--------4--4--------4-----------9--9--------9\---------4--4--------4-----------4--4-----------|
A|----------------------------------------------------------------------------------------------|
E|--2--2--------2--2--------7--7--------7--7-------2--2--------2--2--------2--2--------2--2-----|


(Guitar Only)


Chorus:

When it gets loud, I turn it up. Oh, shake it like a bad girl up in Harlem

G|------------------------------------------------------------------------------------------------------|
D|--------4-----------4-----------8-----------8-----------11--11--------11-----------11-----------11\---|
A|------------------------------------------------------------------------------------------------------|
E|--2--2-----2--2--2-----2--6--6-----6--6--6-----6--9--9----------9--9------9--9--9------9--9--9--------|

When it's too hot, I light it up. Oh, light it up, yeah, smoke 'em if you got 'em

G|------------------------------------------------------------------------------------------------------|
D|--------4-----------4-----------8-----------8-----------11--11--------11-----------11-----------11\---|
A|------------------------------------------------------------------------------------------------------|
E|--2--2-----2--2--2-----2--6--6-----6--6--6-----6--9--9----------9--9------9--9--9------9--9--9--------|

When it's too hot, I shake it up. Sh-sh-sh-shake it like a bad girl up in Harlem

G|------------------------------------------------------------------------------------------------------|
D|--------4-----------4-----------8-----------8-----------11--11--------11-----------11-----------11\---|
A|------------------------------------------------------------------------------------------------------|
E|--2--2-----2--2--2-----2--6--6-----6--6--6-----6--9--9----------9--9------9--9--9------9--9--9--------|

You're so sweet, but I like it rough. Oh, light it up, yeah, smoke 'em if you got 'em

G|------------------------------------------------------------------------------------------------------|
D|--------4-----------4-----------8-----------8-----------11--11--------11-----------11-----------11\---|
A|------------------------------------------------------------------------------------------------------|
E|--2--2-----2--2--2-----2--6--6-----6--6--6-----6--9--9----------9--9------9--9--9------9--9--9--------|


(Rest During Bridge)


Chorus:

When it gets loud, I turn it up. Oh, shake it like a bad girl up in Harlem

G|------------------------------------------------------------------------------------------------------|
D|--------4-----------4-----------8-----------8-----------11--11--------11-----------11-----------11\---|
A|------------------------------------------------------------------------------------------------------|
E|--2--2-----2--2--2-----2--6--6-----6--6--6-----6--9--9----------9--9------9--9--9------9--9--9--------|

When it's too hot, I light it up. Oh, light it up, yeah, smoke 'em if you got 'em

G|------------------------------------------------------------------------------------------------------|
D|--------4-----------4-----------8-----------8-----------11--11--------11-----------11-----------11\---|
A|------------------------------------------------------------------------------------------------------|
E|--2--2-----2--2--2-----2--6--6-----6--6--6-----6--9--9----------9--9------9--9--9------9--9--9--------|

When it's too hot, I shake it up. Oh, light it, look at that girl up in Harlem

G|------------------------------------------------------------------------------------------------------|
D|--------4-----------4-----------8-----------8-----------11--11--------11-----------11-----------11\---|
A|------------------------------------------------------------------------------------------------------|
E|--2--2-----2--2--2-----2--6--6-----6--6--6-----6--9--9----------9--9------9--9--9------9--9--9--------|

You're so sweet, but I like it rough. Oh, light it up, yeah, smoke 'em if you got 'em

G|------------------------------------------------------------------------------------------------------|
D|--------4-----------4-----------8-----------8-----------11--11--------11-----------11-----------11\---|
A|------------------------------------------------------------------------------------------------------|
E|--2--2-----2--2--2-----2--6--6-----6--6--6-----6--9--9----------9--9------9--9--9------9--9--9--------|
            
Submit corrections

↑ Back to top | Tablatures and chords for acoustic guitar and electric guitar, ukulele, drums are parodies/interpretations of the original songs. You may use it for private study, scholarship, research or language learning purposes only