» » »

New Order - Temptation Live Tabs

Artists:  A B C D E F G H I J K L M N O P Q R S T U V W X Y Z # 

Temptation Live Tabs

(ver. 1) Click to play this song!
New Order
 Rating:
4.3/5 (25 votes)

 Temptation Live lessons Tabs too difficult? Try these video lessons and learn fast
 
                (intro small lead part - usually just played live)

e|---15---15-------|---15---15-------|-----------------|-----------------|
B|-17---17---------|-17---17---------|-17----13\-------|-----------------|
G|-----------------|-----------------|-----------------|-----------------|
D|-----------------|-----------------|-----------------|-----------------|
A|-----------------|-----------------|-----------------|-----------------|
E|-----------------|-----------------|-----------------|-----------------|

(Rhythm Break)
   C5                C5                C5*               C5*    D5* C5*
e|-x-x-x--x--x-x-x-|-x-x-x--x--x-x-x-|-x-x-x--x--x-x-x-|-x-x-x--x--x-x-x-|
B|-x-x-x--x--x-x-x-|-x-x-x--x--x-x-x-|-x-x-x--x--x-x-x-|-x-x-x--x--x-x-x-|
G|-5-5-5--5--5-5-5-|-5-5-5--5--5-5-5-|-171717-17-171717|-171717-19-191717|
D|-5-5-5--5--5-5-5-|-5-5-5--5--5-5-5-|-171717-17-171717|-171717-19-191717|
A|-3-3-0--3--0-3-0-|-3-3-0--3--0-3-0-|-1517-0-17--017-0|-1515-0-17-171515|
E|-x-x-x--x--x-x-x-|-x-x-x--x--x-x-x-|-x-x-x--x--x-x-x-|-x-x-x--x--x-x-x-|(x2)

(staccato part)
PM  .      .  .       .      .  .       .   .   .   .     .   .   .   .
e|-----------------|-----------------|-----------------|-----------------|
B|-----------------|-----------------|-----------------|-----------------|
G|-----------------|-----------------|-----------------|-----------------|
D|-17xx17-15-14----|-17xx17-15-14----|-12xx14-12-14----|-12xx14-12-14----|
A|-----------------|-----------------|-----------------|-----------------|
E|-----------------|-----------------|-----------------|-----------------|(x4)

(Riff)                                
e|--3-3--3--3-3----|--3-3--3--3-3----|--3-3--3--3-3----|--3-3--3--3-3----|
B|--5-5b-3--3-3----|--5-5b-3--3-3----|--5-5b-3--3-3----|--5-5b-3--3-3----|
G|-0-0-----0-0--5b-|-0-0-----0-0--5b-|-0-0-----0-0--5b-|-0-0-----0-0--5b-|
D|-----------------|-----------------|-----------------|-----------------|
A|-----------------|-----------------|-----------------|-----------------|(x2)
E|-----------------|-----------------|-----------------|-----------------|

   C                 F
e|-0---------------|-1---------------|
B|-1---------------|-1---------------|
G|-0---------------|-2---------------|
D|-2---------------|-3---------------|
A|-3---------------|-3---------------|
E|-x---------------|-1---------------|


(Bass riff)
e|-----------------|-----------------|-----------------|-----------------|
B|-----------------|-----------------|-----------------|-----------------|
G|-----------------|-----------------|-----------------|-----------------|
D|-----------------|-----------------|-----------------|-----------------|
A|-----------------|-10--------------|-8---------------|-----------------|
E|-8---------------|-----------------|-----------------|-----------------|

e|-----------------|-----------------|-----------------|-----------------|
B|-----------------|-----------------|-----------------|-----------------|
G|-----------------|-----------------|-----------------|-----------------|
D|-----------------|-----------------|-----------------|-----------------|
A|-----------------|-10-----------10-|-8---------------|-8-10-8-10-8-10-8|(x3)
E|-8------------8--|-----------------|-----------------|-----------------|

Heaven, a gateway, a hope
Just like a feeling inside, it's no joke
And though it hurts me to see you this way
Betrayed by words, I'd never heard, too hard to say


(chorus)
   C*                G*                F*
e|-8---------------|-10--------------|-8---------------|-----------------|
B|-8---------------|-12--------------|-10--------------|-----------------|
G|-9---------------|-12--------------|-10--------------|-----------------|
D|-10--------------|-12--------------|-10--------------|-----------------|
A|-10--------------|-10--------------|-8---------------|-----------------|(x2)
E|-8---------------|-x---------------|-x---------------|-----------------|

Up, down, turn around
Please don't let me hit the ground
Tonight I think I'll walk alone
I'll find my soul as I go home

Up, down, turn around
Please don't let me hit the ground
Tonight I think I'll walk alone
I'll find my soul as I go home

(Bass riff)
e|-----------------|-----------------|-----------------|-----------------|
B|-----------------|-----------------|-----------------|-----------------|
G|-----------------|-----------------|-----------------|-----------------|
D|-----------------|-----------------|-----------------|-----------------|
A|-----------------|-10-----------10-|-8---------------|-8-10-8-10-8-10-8|(x2)
E|-8------------8--|-----------------|-----------------|-----------------|

oo-ah-oo-ah-oo...

(pause for a bit)

(Bass riff)
e|-----------------|-----------------|-----------------|-----------------|
B|-----------------|-----------------|-----------------|-----------------|
G|-----------------|-----------------|-----------------|-----------------|
D|-----------------|-----------------|-----------------|-----------------|
A|-----------------|-10--------------|-8---------------|-----------------|
E|-8---------------|-----------------|-----------------|-----------------|

e|-----------------|-----------------|-----------------|-----------------|
B|-----------------|-----------------|-----------------|-----------------|
G|-----------------|-----------------|-----------------|-----------------|
D|-----------------|-----------------|-----------------|-----------------|
A|-----------------|-10-----------10-|-8---------------|-8-10-8-10-8-10-8|(x3)
E|-8------------8--|-----------------|-----------------|-----------------|

Each way I turn, I know I'll always try
To break this circle that's been placed around me
From time to time, I find I've lost some need
That was urgent to myself, I do believe

(chorus)
   C*                G*                F*
e|-8---------------|-10--------------|-8---------------|-----------------|
B|-8---------------|-12--------------|-10--------------|-----------------|
G|-9---------------|-12--------------|-10--------------|-----------------|
D|-10--------------|-12--------------|-10--------------|-----------------|
A|-10--------------|-10--------------|-8---------------|-----------------|(x2)
E|-8---------------|-x---------------|-x---------------|-----------------|


Up, down, turn around
Please don't let me hit the ground
Tonight I think I'll walk alone
I'll find my soul as I go home

Up, down, turn around
Please don't let me hit the ground
Tonight I think I'll walk alone
I'll find my soul as I go home

(Rhythm Break)
   C5                C5                C5*               C5*    D5* C5*
e|-x-x-x--x--x-x-x-|-x-x-x--x--x-x-x-|-x-x-x--x--x-x-x-|-x-x-x--x--x-x-x-|
B|-x-x-x--x--x-x-x-|-x-x-x--x--x-x-x-|-x-x-x--x--x-x-x-|-x-x-x--x--x-x-x-|
G|-5-5-5--5--5-5-5-|-5-5-5--5--5-5-5-|-171717-17-171717|-171717-19-191717|
D|-5-5-5--5--5-5-5-|-5-5-5--5--5-5-5-|-171717-17-171717|-171717-19-191717|
A|-3-3-0--3--0-3-0-|-3-3-0--3--0-3-0-|-1517-0-17--017-0|-1515-0-17-171515|
E|-x-x-x--x--x-x-x-|-x-x-x--x--x-x-x-|-x-x-x--x--x-x-x-|-x-x-x--x--x-x-x-|(x2)

(staccato part)
PM  .      .  .       .      .  .       .   .   .   .     .   .   .   .
e|-----------------|-----------------|-----------------|-----------------|
B|-----------------|-----------------|-----------------|-----------------|
G|-----------------|-----------------|-----------------|-----------------|
D|-17xx17-15-14----|-17xx17-15-14----|-12xx14-12-14----|-12xx14-12-14----|
A|-----------------|-----------------|-----------------|-----------------|
E|-----------------|-----------------|-----------------|-----------------|(x4)

(Riff)                                
e|--3-3--3--3-3----|--3-3--3--3-3----|--3-3--3--3-3----|--3-3--3--3-3----|
B|--5-5b-3--3-3----|--5-5b-3--3-3----|--5-5b-3--3-3----|--5-5b-3--3-3----|
G|-0-0-----0-0--5b-|-0-0-----0-0--5b-|-0-0-----0-0--5b-|-0-0-----0-0--5b-|
D|-----------------|-----------------|-----------------|-----------------|
A|-----------------|-----------------|-----------------|-----------------|(x2)
E|-----------------|-----------------|-----------------|-----------------|

   C                 F                 C
e|-0---------------|-1---------------|-0---------------|-----------------|
B|-1---------------|-1---------------|-1---------------|-----------------|
G|-0---------------|-2---------------|-0---------------|-----------------|
D|-2---------------|-3---------------|-2---------------|-----------------|
A|-3---------------|-3---------------|-3---------------|-----------------|
E|-x---------------|-1---------------|-x---------------|-----------------|

(pause for a bit)

(Bass riff)
e|-----------------|-----------------|-----------------|-----------------|
B|-----------------|-----------------|-----------------|-----------------|
G|-----------------|-----------------|-----------------|-----------------|
D|-----------------|-----------------|-----------------|-----------------|
A|-----------------|-10--------------|-8---------------|-----------------|
E|-8---------------|-----------------|-----------------|-----------------|

e|-----------------|-----------------|-----------------|-----------------|
B|-----------------|-----------------|-----------------|-----------------|
G|-----------------|-----------------|-----------------|-----------------|
D|-----------------|-----------------|-----------------|-----------------|
A|-----------------|-10-----------10-|-8---------------|-8-10-8-10-8-10-8|(x3)
E|-8------------8--|-----------------|-----------------|-----------------|

Oh, you've got green eyes
Oh, you've got blue eyes
Oh, you've got grey eyes
Oh, you've got green eyes
Oh, you've got blue eyes
Oh, you've got grey eyes
And I've never seen anyone quite like you before
No, I've never met anyone quite like you before

   C*                G*                F*
e|-8---------------|-10--------------|-8---------------|-----------------|
B|-8---------------|-12--------------|-10--------------|-----------------|
G|-9---------------|-12--------------|-10--------------|-----------------|
D|-10--------------|-12--------------|-10--------------|-----------------|
A|-10--------------|-10--------------|-8---------------|-----------------|(x2)
E|-8---------------|-x---------------|-x---------------|-----------------|

Bolts from above hurt the people down below
People in this world, we have no place to go
Bolts from above hurt the people down below
People in this world, we have no place to go   

   C*                G*                F*
e|-8---8---8---8---|-10--10--10--10--|-8---8---8---8---|-8---8---8---8---|
B|-8---8---8---8---|-12--12--12--12--|-10--10--10--10--|-10--10--10--10--|
G|-9---9---9---9---|-12--12--12--12--|-10--10--10--10--|-10--10--10--10--|
D|-10--10--10--10--|-12--12--12--12--|-10--10--10--10--|-10--10--10--10--|
A|-10--10--10--10--|-10--10--10--10--|-8---8---8---8---|-8---8---8---8---|
E|-8---8---8---8---|-x---x---x---x---|-x---x---x---x---|-x---x---x---x---|

Bolts from above hurt the people down below
People in this world, we have no place to go
Bolts from above hurt the people down below
People in this world, we have no place to go
Oh, it's the last time
Oh, it's the last time
Oh, it's the last time
Oh, it's the last time
Oh, it's the last time
Oh, I've never met anyone quite like you before
Oh no, I've never met anyone quite like you before

(Rhythm Break)
   C5                C5                C5*               C5*    D5* C5*
e|-x-x-x--x--x-x-x-|-x-x-x--x--x-x-x-|-x-x-x--x--x-x-x-|-x-x-x--x--x-x-x-|
B|-x-x-x--x--x-x-x-|-x-x-x--x--x-x-x-|-x-x-x--x--x-x-x-|-x-x-x--x--x-x-x-|
G|-5-5-5--5--5-5-5-|-5-5-5--5--5-5-5-|-171717-17-171717|-171717-19-191717|
D|-5-5-5--5--5-5-5-|-5-5-5--5--5-5-5-|-171717-17-171717|-171717-19-191717|
A|-3-3-0--3--0-3-0-|-3-3-0--3--0-3-0-|-1517-0-17--017-0|-1515-0-17-171515|
E|-x-x-x--x--x-x-x-|-x-x-x--x--x-x-x-|-x-x-x--x--x-x-x-|-x-x-x--x--x-x-x-|(x2)

(staccato part)
PM  .      .  .       .      .  .       .   .   .   .     .   .   .   .
e|-----------------|-----------------|-----------------|-----------------|
B|-----------------|-----------------|-----------------|-----------------|
G|-----------------|-----------------|-----------------|-----------------|
D|-17xx17-15-14----|-17xx17-15-14----|-12xx14-12-14----|-12xx14-12-14----|
A|-----------------|-----------------|-----------------|-----------------|
E|-----------------|-----------------|-----------------|-----------------|(x4)

(Riff)                                
e|--3-3--3--3-3----|--3-3--3--3-3----|--3-3--3--3-3----|--3-3--3--3-3----|
B|--5-5b-3--3-3----|--5-5b-3--3-3----|--5-5b-3--3-3----|--5-5b-3--3-3----|
G|-0-0-----0-0--5b-|-0-0-----0-0--5b-|-0-0-----0-0--5b-|-0-0-----0-0--5b-|
D|-----------------|-----------------|-----------------|-----------------|
A|-----------------|-----------------|-----------------|-----------------|(x2)
E|-----------------|-----------------|-----------------|-----------------|

   C                 F                 C                 
e|-0---------------|-1---------------|-0---------------|-----------------|
B|-1---------------|-1---------------|-1---------------|-----------------|
G|-0---------------|-2---------------|-0---------------|-----------------|
D|-2---------------|-3---------------|-2---------------|-----------------|
A|-3---------------|-3---------------|-3---------------|-----------------|
E|-x---------------|-1---------------|-x---------------|-----------------|

            
Submit corrections


        Temptation Live lessons Hard to play? Try these video lessons and learn fast Temptation Live lessons
        
↑ Back to top | Tablatures and chords for acoustic guitar and electric guitar, ukulele, drums are parodies/interpretations of the original songs. You may use it for private study, scholarship, research or language learning purposes only