» » »

New Order - Regret Bass

Artists:  A B C D E F G H I J K L M N O P Q R S T U V W X Y Z # 

Regret Bass

(ver. 1) Click to play this song!
New Order
 Rating:
4.2/5 (5 votes)

 Regret lessons Tabs too difficult? Try these video lessons and learn fast
 
                
Regret (Bass Tab)
Love Vigilantes - The Definitive Tribute to New Order

Tuning: EADG

Intro (Chorus) - 2x
    
|--------10------12--------------|--------10------12------12------|
|10------------------------------|--10----------------------------|
|--------------------------------|--------------------------------|
|--------------------------------|--------------------------------|
  
|----------10------12------14----|12------10------9---------------|
|--10----------------------------|--------------------------12----|
|--------------------------------|--------------------------------| 
|--------------------------------|--------------------------------|
 
Pre-Verse - 2X
 
|--------------------------------|--------------------------------|
|10------10--10--10--10--10------|12------10------10--10--10--10--|
|--------------------------------|--------------------------------|
|--------------------------------|--------------------------------|
     
|--------------------------------|--------------------------------|
|--10--10--10--10--10--10--10----|5-------5-------5---5---5---5---|
|--------------------------------|--------------------------------|
|--------------------------------|--------------------------------|

Verse 1
     
|--------------------------------|--------------------------------|
|3-------3-------3---3---3---3---|3-------3-------3---3---3---3---|
|--------------------------------|--------------------------------|
|--------------------------------|--------------------------------|
      
|--------------------------------|--------------------------------|
|8-------8-------8---8---8---8---|8-------8-------8---8---8---8---|
|--------------------------------|--------------------------------|
|--------------------------------|--------------------------------|
      
|--------------------------------|--------------------------------|
|3-------3-------3---3---3---3---|3-------3-------3---3---3---3---|
|--------------------------------|--------------------------------|
|--------------------------------|--------------------------------|
    
|--------------------------------|--------------------------------|
|8-------8---8---8---8---8---10--|10--10/-14--14--14--14--14--14--|
|--------------------------------|--------------------------------|
|--------------------------------|--------------------------------|
     
|--------------------------------|--------------------------------|
|12------12------12--12--12--12--|7-------7-------7---7---7---7---|
|--------------------------------|--------------------------------|
|--------------------------------|--------------------------------|
    
|--------------------------------|--------------------------------|
|8-------8-------8---8---8---8---|8-------8-------8---8---8---8---|
|--------------------------------|--------------------------------|
|--------------------------------|--------------------------------|

|--------------------------------|--------------------------------|
|10------------------------------|--------------------------------|
|--------------------------------|--------------------------------|
|--------------------------------|--------------------------------| 

Chorus - 2x
 
Pre-Verse - 2X

Verse 2
     
|--------------------------------|--------------------------------|
|3-------3-------3---3---3---3---|3-------3-------3---3---3---3---|
|--------------------------------|--------------------------------|
|--------------------------------|--------------------------------|
      
|--------------------------------|--------------------------------|
|8-------8-------8---8---8---8---|8-------8-------8---8---8---8---|
|--------------------------------|--------------------------------|
|--------------------------------|--------------------------------|
      
|--------------------------------|--------------------------------|
|3-------3-------3---3---3---3---|3-------3-------3---3---3---3---|
|--------------------------------|--------------------------------|
|--------------------------------|--------------------------------|
    
|--------------------------------|--------------------------------|
|8-------8---8---8---8---8---10--|10--10/-14--14--14--14--14--14--|
|--------------------------------|--------------------------------|
|--------------------------------|--------------------------------|

|--------------------------------|--------------------------------|
|12------12------12--12--12--12--|7-------7-------7---7---7---7---|
|--------------------------------|--------------------------------|
|--------------------------------|--------------------------------|
    
|--------------------------------|--------------------------------|
|8-------8-------8---8---8---8---|8-------8-------8---8---8---8---|
|--------------------------------|--------------------------------|
|--------------------------------|--------------------------------|

|--------------------------------|--------------------------------|
|10------10------10--10--10--10--|7-------7-------7---7---7---7---|
|--------------------------------|--------------------------------|
|--------------------------------|--------------------------------|
    
|--------------------------------|--------------------------------|
|8-------8-------8---8---8---8---|8-------8-------8---8---8---8---|
|--------------------------------|--------------------------------|
|--------------------------------|--------------------------------|

|--------------------------------|--------------------------------|
|10------------------------------|--------------------------------|
|--------------------------------|--------------------------------|
|--------------------------------|--------------------------------|

Chorus 2x

Pre-Verse 2X

Solo

|5-------5---5---5---5---5/------|--10----10------10--10--10--10--|
|--------------------------------|--------------------------------|
|--------------------------------|--------------------------------|
|--------------------------------|--------------------------------|
     
|12--10--10--10--10/-----12/---14|14------14------14--14--14------|
|--------------------------------|--------------------------------|
|--------------------------------|--------------------------------|
|--------------------------------|--------------------------------|
    
|5-------5---5---5---5---5/------|--10----10------10--10--10--10--|
|--------------------------------|--------------------------------|
|--------------------------------|--------------------------------|
|--------------------------------|--------------------------------|
  
|12--10--10--10--10/-----12/---14|14------14------14--14--14------|
|--------------------------------|--------------------------------|
|--------------------------------|--------------------------------|
|--------------------------------|--------------------------------|
   
|14------14--14--14--14--14------|17------15------14--14--14--14--|
|--------------------------------|--------------------------------|
|--------------------------------|--------------------------------|
|--------------------------------|--------------------------------|
   
|17--15--14--15--14--10--10--12--|10------12--12--10--------------|
|--------------------------------|--------------------------------|
|--------------------------------|--------------------------------|
|--------------------------------|--------------------------------|

Chorus 7x

Alternate ending:

Chorus 2x

Alternate Pre-Verse 2X

|--------------------------------|------------------12------------|
|10------10--10--10--10--10------|12------10----------------------|
|--------------------------------|--------------------------------|
|--------------------------------|--------------------------------|
     
|12---14---12---10---9---10---9--|10------12---12-----------------|
|--------------------------------|--------------------------------|
|--------------------------------|--------------------------------|
|--------------------------------|--------------------------------|

Chorus 3X


ALternate Chorus (Live):

|--------10------12--------------|--------10------12------12------|
|10------------------------------|--10----------------------------|
|--------------------------------|--------------------------------|
|--------------------------------|--------------------------------|
  
|----------10------12------14----|12------10------9----10---9-----|
|--10----------------------------|--------------------------------|
|--------------------------------|--------------------------------| 
|--------------------------------|--------------------------------|

Alternate Pre-Verse (Live):

|--------------------------------|------------------12------------|
|10------10--10--10--10--10------|12------10----------------------|
|--------------------------------|--------------------------------|
|--------------------------------|--------------------------------|
     
|--------------------------------|--------------------------------|
|--10--10--10--10--10--10--10----|5-------5-------5---5---5---5---|
|--------------------------------|--------------------------------|
|--------------------------------|--------------------------------|
            
Submit corrections


        Regret lessons Hard to play? Try these video lessons and learn fast Regret lessons
        
↑ Back to top | Tablatures and chords for acoustic guitar and electric guitar, ukulele, drums are parodies/interpretations of the original songs. You may use it for private study, scholarship, research or language learning purposes only