Home » N » New Order »

New Order - Temptation Bass

Artists:  A B C D E F G H I J K L M N O P Q R S T U V W X Y Z # 

Temptation Bass

(ver. 1) Click to play this song!
New Order
G|------------------------------|
D|-10--10-10-10-10-10-10-10-10--|
A|------------------------------|
E|------------------------------|
 
G|-12--12--12--12--12--12--|
D|-------------------------|
A|-------------------------|
E|-------------------------|
 
G|------------------------|
D|-10--10\3--3--3/10--10--|
A|------------------------|
E|------------------------|
 
G|---------12--12--10--|
D|-10--10--------------|
A|---------------------|
E|---------------------|
 
G|-10--12-10-12-10-12-10-12-10-12-12--|
D|------------------------------------|
A|------------------------------------|
E|------------------------------------|
 
G|-------------------------12-12-12-12-12-12-12-12--10-10-10-10-10-10-10-10--12-10-12-10-12-10-12-12-|
D|-10-10-10-10-10-10-10-10---------------------------------------------------------------------------|
A|---------------------------------------------------------------------------------------------------|
E|---------------------------------------------------------------------------------------------------|
 
G|--------------------------------------------------12----12----12----12-|
D|-10--10-10-10-10-10--12--12-12-12-12-12--10-10-10----10----10----10----|
A|-----------------------------------------------------------------------|
E|-----------------------------------------------------------------------|
 
G|-------------|
D|-10--10\3 3--|
A|-------------|
E|-------------|
 
G|-------------------5---5---5---5-5--|
D|----------10-10\3----3---3---3------|
A|-3--3/10----------------------------|
E|------------------------------------|
 
G|---------------------------------------------------------------------|
D|------------------5-5-5-5-5-5-5-5--3-3-3-3-3-3-3-3--5-3-5-3-5-3-5-5--|
A|-3-3-3-3-3-3-3-3-----------------------------------------------------|
E|---------------------------------------------------------------------|
 
G|-------------------------12-12-12-12-12-12-12-12--10-10-10-10-10-10-10-10--12-10-12-10-12-10-12-12-|
D|-10-10-10-10-10-10-10-10---------------------------------------------------------------------------|
A|---------------------------------------------------------------------------------------------------|
E|---------------------------------------------------------------------------------------------------|
 
G|-------------------12-12-12-12-12-12--10-10-10-10-10-10/17-17-17-17-17-17-17-|
D|-10-10-10-10-10-10-----------------------------------------------------------|
A|-----------------------------------------------------------------------------|
E|-----------------------------------------------------------------------------|
 
G|------------------------------|
D|-10--10-10-10-10-10-10-10-10--|
A|------------------------------|
E|------------------------------|
 
G|-12--12--12--12--12--12--|
D|-------------------------|
A|-------------------------|
E|-------------------------|
 
G|------------------------------|
D|-10--10-10-10-10-10-10-10-10--|
A|------------------------------|
E|------------------------------|
 
G|--------------------|
D|-3--3-3-3-3-3-3-3-3-|
A|--------------------|
E|--------------------|
 
G|----
D|-10-
A|----
E|----
            
Submit corrections

↑ Back to top | Tablatures and chords for acoustic guitar and electric guitar, ukulele, drums are parodies/interpretations of the original songs. You may use it for private study, scholarship, research or language learning purposes only