» » »

New Order - Love Vigilantes Bass

Artists:  A B C D E F G H I J K L M N O P Q R S T U V W X Y Z # 

Love Vigilantes Bass

(ver. 2) Click to play this song!
New Order
 Rating:
4.3/5 (26 votes)

 Love Vigilantes lessons Tabs too difficult? Try these video lessons and learn fast
 
                [Riff 1]

G|---------------------------------------------------------------------------|
D|-12---12-12-12-12-12--12---12-12-12-12-12-12-12--10---10-10-10-10-10--10---|
A|---------------------------------------------------------------------------|
E|---------------------------------------------------------------------------|

G|---------------------------------------------------------------------------|
D|-10-10--10-10-10-10-10--12---12-12-12-12-12-12---10-12-10-12-10-12-12------|
A|---------------------------------------------------------------------------|
E|---------------------------------------------------------------------------|

G|---------------------------------------------------------------------------|
D|-5---5-5-5-5-5-5---5-5-5-5-5-5-5-------------------------------------------|
A|---------------------------------------------------------------------------|
E|---------------------------------------------------------------------------|


[Riff 2/Chorus]

G|---------------------------------------------------------------------------|
D|-12---12-12-12-12-12--12---12-12-12-12-12-12-12--10---10-10-10-10-10--10---|
A|---------------------------------------------------------------------------|
E|---------------------------------------------------------------------------|

G|-----------------------------------------------------------12-12-12-12-12--|
D|-10-10--10-10-10-10-10--12---12-12-12-12-12-12/14-14-14-12-----------------|
A|---------------------------------------------------------------------------|
E|---------------------------------------------------------------------------|

G|-------12---12-12-12-12----------------------------------------------------|
D|-14-12------------------14-12----------------------------------------------|
A|---------------------------------------------------------------------------|
E|---------------------------------------------------------------------------|            
Submit corrections


        Love Vigilantes lessons Hard to play? Try these video lessons and learn fast Love Vigilantes lessons
        
↑ Back to top | Tablatures and chords for acoustic guitar and electric guitar, ukulele, drums are parodies/interpretations of the original songs. You may use it for private study, scholarship, research or language learning purposes only