» » »

New Order - Crystal Tabs

Artists:  A B C D E F G H I J K L M N O P Q R S T U V W X Y Z # 

Crystal Tabs

(ver. 2) Click to play this song!
New Order
 Rating:
4/5 (4 votes)

 Crystal lessons Tabs too difficult? Try these video lessons and learn fast
 
                (Intro)

played on piano

|-0-----0-------0-|---------0-----0-|-0-----0------0-|---------0------0-|
|-----1---3---1---|-3---1-3-----1---|-----1---3---1--|-3---1-3-----1----|
|---2-------2-----|---2-------2-----|---2-------2----|---2--------2-----|
|-----------------|-----------------|----------------|------------------|
|-----------------|-----------------|----------------|------------------|
|-----------------|-----------------|----------------|------------------|

 While guitar does
|-7---------------|-8---------------|----------------|------------------|
|-9---------------|-12--------------|--10------------|--8---------------|
|-9---------------|-12--------------|--11------------|--11--------------|
|-----------------|-----------------|----------------|--7---------------|
|-----------------|-----------------|----------------|------------------|
|-----------------|-----------------|----------------|------------------|
cheers,

panicatthepaddy
            
Submit corrections


        Crystal lessons Hard to play? Try these video lessons and learn fast Crystal lessons
        
↑ Back to top | Tablatures and chords for acoustic guitar and electric guitar, ukulele, drums are parodies/interpretations of the original songs. You may use it for private study, scholarship, research or language learning purposes only