» » »

New Order - Blue Monday Bass

Artists:  A B C D E F G H I J K L M N O P Q R S T U V W X Y Z # 

Blue Monday Bass

(ver. 1) Click to play this song!
New Order
 Rating:
3.4/5 (10 votes)

 Blue Monday lessons Tabs too difficult? Try these video lessons and learn fast
 
                                            Blue Monday                               
                                                             New Order
Bass

      E  S S E  S S E  S S E  S S    E  S S E  S S E  S S E  S S  
G||-------------------------------|------------------------------|
D||*------------------------------|------------------------------|
A||*--8--8-8-8--8-8-3--3-3-3--3-3-|--5--5-5-5--5-5-5--5-5-5--5-5-|
E||-------------------------------|------------------------------|


   E   S  S  E   S  S E  S S E  S S    E  S S E  S S E  S S E  S S    
------------------------------------|-------------------------------||
------------------------------------|------------------------------*||
--10--10-10-10--10-10-3--3-3-3--3-3-|--5--5-5-5--5-5-5--5-5-5--5-5-*||
------------------------------------|-------------------------------||


   E   E  E   E  E  E  E  E     E  E  E  E  E  E  E  E   
------10-----10-----5-----5--|-----7-----7-----7-----7--|
*----------------------------|--------------------------|
*--8------8------3-----3-----|--5-----5-----5-----5-----|
-----------------------------|--------------------------|


   E   E   E   E  E  E  E  E     E  E  E  E  E  E  E  E     
------12------12-----5-----5--|-----7-----7-----7-----7---||
------------------------------|--------------------------*||
--10------10------3-----3-----|--5-----5-----5-----5-----*||
------------------------------|---------------------------||




Duration Legend
---------------
W - whole
H - half
Q - quarter
E - 8th
S - 16th
T - 32nd
X - 64th
. - note dotted
|-n-|  - n-tuplets


Tablature Legend
----------------
L - tied note
x - dead note
g - grace note
(n) - ghost note
> - accentuded note
NH - natural harmonic
AH - artificial harmonic
TH - tapped harmonic
SH - semi harmonic
PH - pitch harmonic
h - hammer on
p - pull off
b - bend
br - bendRelease
pb - preBend
pbr - preBendRelease
brb - bendReleaseBend
\n/ - tremolo bar dip
\n - tremolo bar dive
-/n - tremolo bar Release up
/n\ - tremolo bar inverted dip
/n - tremolo bar return
-\n - tremolo bar Release down
S - shift slide
s - legato slide
/ -  slide into from below or out of upwards
\ -  slide into from above or out of downwards
~ - vibrato
W - wide vibrato
tr - trill
TP - tremolo picking
T - tapping
S - slap
P - pop
< - fade in
^ - brush up
v - brush down
            
Submit corrections


        Blue Monday lessons Hard to play? Try these video lessons and learn fast Blue Monday lessons
        
↑ Back to top | Tablatures and chords for acoustic guitar and electric guitar, ukulele, drums are parodies/interpretations of the original songs. You may use it for private study, scholarship, research or language learning purposes only