» » »

New Order - Blue Monday Tabs

Artists:  A B C D E F G H I J K L M N O P Q R S T U V W X Y Z # 

Blue Monday Tabs

(ver. 1) Click to play this song!
New Order
 Rating:
4.4/5 (8 votes)

 Blue Monday lessons Tabs too difficult? Try these video lessons and learn fast
 
                Intro

This is the percussion start - slap strings for several bars in this rythm


  |--X---X---XXXXXXXXX---X---X---X---X---X---XXXXXXXXX---X---X---X---

     |   x   |   x   |   x   |   x   |   x   |   x   |   x   |   x   

Then...

E|--1-1-1-3-------------------------1-1-1-3-------------------------|
B|----------1-1-1-1-3-3-3-3-3-3-3-3---------1-1-1-1-3-3-3-3-3-3-3-3-|
G|------------------------------------------------------------------|
C|------------------------------------------------------------------|
F|------------------------------------------------------------------|
C|------------------------------------------------------------------|
    |   x   |   x   |   x   |   x   |   x   |   x   |   x   |   x   

E|--1-1-1-3-------------------------1-1-1-3-------------------------|
B|----------1-1-1-1-3-3-3-3-3-3-3-3---------1-1-1-1-3-3-3-3-3-3-3-3-|
G|------------------------------------------------------------------|
C|------------------------------------------------------------------|
F|------------------------------------------------------------------|
C|------------------------------------------------------------------|
    |   x   |   x   |   x   |   x   |   x   |   x   |   x   |   x   

E|--1-1-1-3-------------------------1-1-1-3-------------------------|
B|----------1-1-1-1-3-3-3-3-3-3-3-3---------1-1-1-1-3-3-3-3-3-3-3-3-|
G|------------------------------------------------------------------|
C|------------------------------------------------------------------|
F|--0-----2-------------------------0----2--------------------------|
C|----------0-----0-2-------2-----2---------0-----0-2-------2-----2-|
    |   x   |   x   |   x   |   x   |   x   |   x   |   x   |   x   


E|--1-1-1-3-------------------------1-1-1-3-------------------------|
B|----------1-1-1-1-3-3-3-3-3-3-3-3---------1-1-1-1-3-3-3-3-3-3-3-3-|
G|------------------------------------------------------------------|
C|------------------------------------------------------------------|
F|--0---x-2-------------------------0-----2-------------------------|
C|----------0-----0-2-------2-----2---------0-----0-2-------2-----2-|
    |   x   |   x   |   x   |   x   |   x   |   x   |   x   |   x   


E|--1-1-1-3-------------------------1-1-1-3-------------------------|
B|----------1-1-1-1-3-3-3-3-3-3-3-3---------1-1-1-1-3-3-3-3-3-3-3-3-|
G|------------------------------------------------------------------|
C|------------------------------------------------------------------|
F|--0-----2-------------------------0-----2-------------------------|
C|----------0-----0-2-------2-----2---------0-----0-2-------2-----2-|
    |   x   |   x   |   x   |   x   |   x   |   x   |   x   |   x   


E|--1-1-1-3-------------------------1-1-1-3-------------------------|
B|----------1-1-1-1-3-3-3-3-3-3-3-3---------1-1-1-1-3-3-3-3-3-3-3-3-|
G|------------------------------------------------------------------|
C|------------------------------------------------------------------|
F|--0-----2-------------------------0-----2-------------------------|
C|----------0-----0-2-------2-----2---------0-----0-2-------2-----2-|
    |   x   |   x   |   x   |   x   |   x   |   x   |   x   |   x   

Percussion


E|------------------------------------------------------------------|
B|------------------------------------------------------------------|
G|------------------------------------------------------------------|
C|------------------------------------------------------------------|
F|--0-0---2-------------------------0-0---2-------------------------|
C|----------0-0---0-2-2---2-2-2---2---------0-0---0-2-2---2-2-2---2-|
    |   x   |   x   |   x   |   x   |   x   |   x   |   x   |   x   

E|------------------------------------------------------------------|
B|------------------------------------------------------------------|
G|------------------------------------------------------------------|
C|------------------------------------------------------------------|
F|--0-0---2-------------------------0-0---2-------------------------|
C|----------0-0---0-2-2---2-2-2---2---------0-0---0-2-2---2-2-2---2-|
    |   x   |   x   |   x   |   x   |   x   |   x   |   x   |   x   

E|------------------------------------------------------------------|
B|------------------------------------------------------------------|
G|------------------------------------------------------------------|
C|------------------------------------------------------------------|
F|------------------------------------------------------------------|
C|--2-2-2-2-2-0---0-2---0---2-------5-5-5-5-5-5-5-5-5---7---2-------|
    |   x   |   X   |   x   |   X   |   x   |   X   |   x   |   X   

E|------------------------------------------------------------------|
B|------------------------------------------------------------------|
G|------------------------------------------------------------------|
C|------------------------------------------------------------------|
F|------------------------------------------------------------------|
C|--2-2-2-2-2-0---0-2---0---2-------5-5-5-5-5-5-5-5-5---7---2-------|
    |   x   |   X   |   x   |   X   |   x   |   X   |   x   |   X   

Percussion

E|--1---------------1------------/5-0---------------1------------/5-|
B|--3---------------3---------------3---------------3---------------|
G|------------------------------------------------------------------|
C|------------------------------------------------------------------|
F|--0-0---2-------------------------0-0---2-------------------------|
C|----------0-0---0-2-2---2-2-2-------------0-0---0-2-2---2-2-2-----|
    |   x   |   x   |   x   |   x   |   x   |   x   |   x   |   x   


E|--1---------------1------------/5-0---------------1------------/5-|
B|--3---------------3---------------3---------------3---------------|
G|------------------------------------------------------------------|
C|------------------------------------------------------------------|
F|--0-0---2-------------------------0-0---2-------------------------|
C|----------0-0---0-2-2---2-2-2-------------0-0---0-2-2---2-2-2-----|
    |   x   |   x   |   x   |   x   |   x   |   x   |   x   |   x   


E|--1---------------1-------------5-|
B|--3---------------3---------------|
G|----------------------------------|
C|----------------------------------|
F|--0-0---2-------------------------|
C|----------0-0---0-2-2---2-2-2-----|
    |   x   |   x   |   x   |   x      


E|--8---7---5---0---1------------/5-8---7---5-/12----------------/5-|
B|--5---5---6-------3---------------5---5---6-------3---------------|
G|--5---5---7-------2---------------5---5---7-------2---------------|
C|--------------------------------------------------2---------------|
F|--0-0-----------------------------0-0-----------------------------|
C|--------7---0---0-2-2---2-2-2-----------7---0---0-2-2---2-2-2-----|
    |   x   |   x   |   x   |   x   |   x   |   x   |   x   |   x   


E|--8---7---5---0---1------------/5-8---7---5-/12-------------------|
B|--5---5---6-------3---------------5---5---6-------3---------------|
G|--5---5---7-------2---------------5---5---7-------2---------------|
C|--------------------------------------------------2---------------|
F|--0-0-----------------------------0-0-----------------------------|
C|--------7---0---0-2-2---2-2-2-----------7---0---0-2-2---2-2-2---2-|
    |   x   |   x   |   x   |   x   |   x   |   x   |   x   |   x   

Verse

E|--1-------0-0---------------------1---1---0-0---------------------|
B|--1-------1-----3---------------3-1-------1-----3-------------3-3-|
G|----------------2-------------------------------2-----------------|
C|--------------------0-0-0-2-------------------------2-0-2---------|
F|--0-0---2-------------------------0-0---2-----------------4-------|
C|----------0-------2-------------2---------0-------2---------------|
    |   x   |   x   |   x   |   x   |   x   |   x   |   x   |   x   

E|--1---1---0---0-0-----------------3-3-----------------------------|
B|--1-------1---------3-----------3-1-------1-1---3---------------3-|
G|--------------------2---------------------0-----2-----------------|
C|----------------------0-2---0-----------------------0-------------|
F|--0-0---2-------------------------0-----2------------\4-----------|
C|----------0-0---0-------------------------0-------------2-2-2-----|
    |   x   |   x   |   x   |   x   |   x   |   x   |   x   |   x   

E|--5---5---3---3-3p1---------------5---5---3---3-3p1-------------0-|
B|--3-------1---------------------3-3-------1-------------------3---|
G|------------------------------------------------------------------|
C|--------------------0-2-0-0-------------------------0-------------|
F|--0-0---2-------------------------0-0---2-------------4---4-------|
C|----------0-0---0-------------------------0-0---0-----------------|
    |   x   |   x   |   x   |   x   |   x   |   x   |   x   |   x   

E|--1-------0-0---------------------3---3---------------------------|
B|--1-------1-----3-------------3-3-1-------1-1---3-----------------|
G|----------------2-------------------------0-----2-----------------|
C|--------------------2-0---0---------------------------------------|
F|--0-0---2-------------------------0-0---2-------------------------|
C|----------0---------------------2---------0---------------2---0---|
    |   x   |   x   |   x   |   x   |   x   |   x   |   x   |   x   

E|--1-------0-0---------------------1---1---0-0---------------------|
B|--1-------1-----3---------------3-1-------1-----3-------------3-3-|
G|----------------2-------------------------------2-----------------|
C|--------------------0-0-0-2-------------------------2-0-2---------|
F|--0-0---2-------------------------0-0---2-----------------4-------|
C|----------0-------2-------------2---------0-------2---------------|
    |   x   |   x   |   x   |   x   |   x   |   x   |   x   |   x   

E|--1---1---0---0-0-----------------3-3-----------------------------|
B|--1-------1---------3-----------3-1-------1-1---3---------------3-|
G|--------------------2---------------------0-----2-----------------|
C|----------------------0-2---0-----------------------0-------------|
F|--0-0---2-------------------------0-----2------------\4-----------|
C|----------0-0---0-------------------------0-------------2-2-2-----|
    |   x   |   x   |   x   |   x   |   x   |   x   |   x   |   x   

E|--5---5---3---3-3p1---------------5---5---3---3-3p1-------------0-|
B|--3-------1---------------------3-3-------1-------------------3---|
G|------------------------------------------------------------------|
C|--------------------0-2-0-0-------------------------0-------------|
F|--0-0---2-------------------------0-0---2-------------4---4-------|
C|----------0-0---0-------------------------0-0---0-----------------|
    |   x   |   x   |   x   |   x   |   x   |   x   |   x   |   x   

E|--1-------0-0---------------------3---3---------------------------|
B|--1-------1-----3-------------3-3-1-------1-1---3-----------------|
G|----------------2-------------------------0-----2-----------------|
C|--------------------2-0---0---------------------------------------|
F|--0-0---2-------------------------0-0---2-------------------------|
C|----------0---------------------2---------0-----------x---2---0---|
    |   x   |   x   |   x   |   x   |   x   |   x   |   x   |   x   


Instrumental (Synth solo)

E|------5-5-8-8-10108-8-10108-------10------------------------------|
B|------3-3-8-8-10101010101010------10------------------------------|
G|------2-2-5-5-7-7-1010101010------10------------------------------|
D|------------------------------------------------------------------|
F|----------------------------------9-------------------------------|
C|--2---------------0-------------------------------2-------0-------|
    |       x       |       x       |       x       |       x          


E|-------------1010-----8-8-----5-5-5-------------------------------|
B|-------------1010-----8-8-----3-3-3-------------------------------|
G|-------------1010-----5-5-----2-2-2-------------------------------|
D|------------------------------------------------------------------|
F|--0---------------------------------------------------------------|
C|------------------0---------------2---------------2-------0-------|
    |       x       |       x       |       x       |       x          

E|------5-5-8-8-10108-8-10108-------10------------------------------|
B|------3-3-8-8-10101010101010------10------------------------------|
G|------2-2-5-5-7-7-1010101010------10------------------------------|
D|------------------------------------------------------------------|
F|----------------------------------9-------------------------------|
C|--2---------------0-------------------------------2-------0-------|
    |       x       |       x       |       x       |       x          


E|------------1010----8-8-----5-5---5-------------------------------|
B|------------1010----8-8-----3-3---3-------------------------------|
G|------------1010----5-5-----2-2---2-------------------------------|
D|------------------------------------------------------------------|
F|--0---------------------------------------------------------------|
C|------------------0---------------2---------------2-------0-------|
    |       x       |       x       |       x       |       x          

            
Submit corrections


        Blue Monday lessons Hard to play? Try these video lessons and learn fast Blue Monday lessons
        
↑ Back to top | Tablatures and chords for acoustic guitar and electric guitar, ukulele, drums are parodies/interpretations of the original songs. You may use it for private study, scholarship, research or language learning purposes only