» » »

Nesian Mystik - Sun Goes Down Bass

Artists:  A B C D E F G H I J K L M N O P Q R S T U V W X Y Z # 

Sun Goes Down Bass

(ver. 1) Click to play this song!
Nesian Mystik
 Rating:
4.2/5 (5 votes)

 Sun Goes Down lessons Tabs too difficult? Try these video lessons and learn fast
 
                First time tabbing this song so hope its right
cheers

D
---------------------------------------|
----------4---7----7/9/7----4----------|
-5---5-----------------------------5---|
---------------------------------------|


A
----------------------------------------|
----------------------------------------|
----------4---7----7--------------------|
-5---5--------------------------5-------|


Bm
--------------------------------------|
--------------------------------------|
----------9---7-----------9---7-------|
-7---7------------7---7---------------|


G                 A
--------------------------------------|
--------------------------------------|
----------2---5------------4---7------|
-3---3------------5---5---------------|
            
Submit corrections


        Sun Goes Down lessons Hard to play? Try these video lessons and learn fast Sun Goes Down lessons
        
↑ Back to top | Tablatures and chords for acoustic guitar and electric guitar, ukulele, drums are parodies/interpretations of the original songs. You may use it for private study, scholarship, research or language learning purposes only