» » »

Nerf Herder - Buffy Tabs

Artists:  A B C D E F G H I J K L M N O P Q R S T U V W X Y Z # 

Buffy Tabs

(ver. 3) Click to play this song!
Nerf Herder
 Rating:
4/5 (4 votes)

 Buffy lessons Tabs too difficult? Try these video lessons and learn fast
 
                (Theme)
Heres the 100% Correct version, its very simple and sounds awesome.

Intro
e-------------------------------------------------------|
B-------------------------------------------------------|
G-9--11--12--7--7---9-11-7------------------------------|
D-9--11--12--7--7---9-11-7---------------SLIDE----------|
A-7--9---10--5--5---7-9--5------------------------------|
E-------------------------------------------------------|

This is with heavy distortion
e-------------------------------------------------------|
B-------------------------------------------------------|
G-9-----11-12--7-----9-11--7-----8----------------------|
D-9-X12-11-12--7-X24-9-11--7-X16-8-X16------------------|
A-7-----9--10--5-----7-9---5-----6----------------------|
E-------------------------------------------------------|

Interlude
e---------------|
B-10-12-10-8-87-|
G---------------|
D---------------|
A---------------|
E---------------|


The 3 last strokes
e-------------------------------------------------------|
B-------------------------------------------------------|
G-9---9-------------------------------------------------|
D-9---9---7---------------------------------------------|
A-7---7---7---------------------------------------------|
E---------5---------------------------------------------|
            
Submit corrections


        Buffy lessons Hard to play? Try these video lessons and learn fast Buffy lessons
        
↑ Back to top | Tablatures and chords for acoustic guitar and electric guitar, ukulele, drums are parodies/interpretations of the original songs. You may use it for private study, scholarship, research or language learning purposes only