Home » N » Neal Mccoy »

Neal Mccoy - If I Was A Drinkin' Man Tabs

Artists:  A B C D E F G H I J K L M N O P Q R S T U V W X Y Z # 

If I Was A Drinkin' Man Tabs

(ver. 1) Click to play this song!
Neal Mccoy
IF I WAS A DRINKIN' MAN
Neal McCoy

INTRO:

        (F)                             (Dm)
E---------------------------------------------------1--
B-----1-----1-1---3-3--1--------1---------------3------
G----2---------2---------2-----2----2h3p2p0---2---2----
D---3-------------------------3-------------0----------
A-(rake)--------------------(rake)---------------------
E------------------------------------------------------

              (Bb)       (C)     (F)  
E-----------------------------------------1------------
B-------------------3-----5-----------1-1--------------
G---2h3p2p0--------3-----5-----------2-2---------------
D-----------------3-----5-------3----------------------
A-------------1----------------------------------------
E------------------------------------------------------
            
Submit corrections

↑ Back to top | Tablatures and chords for acoustic guitar and electric guitar, ukulele, drums are parodies/interpretations of the original songs. You may use it for private study, scholarship, research or language learning purposes only