Home » N » Nazareth »

Nazareth - The Ballad Of Hollis Brown Tabs

Artists:  A B C D E F G H I J K L M N O P Q R S T U V W X Y Z # 

The Ballad Of Hollis Brown Tabs

(ver. 1) Click to play this song!
Nazareth
Intro: Play this throughout the song

G|----------|
D|-5-7------|
A|-----0----|
E|----------|

Bridge at 1:01

G|-----------------|
D|-7-5-------------|
A|-----7-6-5-3-2-0-|
E|-----------------|

Bridge at 4:32
G|----------------|
D|-7-5------------|
A|-----7-5-3-2-0--|
            
Submit corrections

↑ Back to top | Tablatures and chords for acoustic guitar and electric guitar, ukulele, drums are parodies/interpretations of the original songs. You may use it for private study, scholarship, research or language learning purposes only