Home » N » Nat And Alex Wolff »

Nat And Alex Wolff - Thump Thump Thump Tabs

Artists:  A B C D E F G H I J K L M N O P Q R S T U V W X Y Z # 

Thump Thump Thump Tabs

(ver. 2) Click to play this song!
Nat And Alex Wolff

 - Intro:

e|----------------------------------------------------------------------|
B|-----------------0------------------0------------------0--------------|
G|-----0---------0--------0---------0--------0---------0-------0--------|
D|---0---------0--------0---------0--------0---------0-------0----------|
A|---------2h3----------------2h3----------------2h3---------------2h3--|
E|-3------------------3------------------3-----------------3------------|



 - Verse:

e|----------------------------------------------------------------------------|
B|-----------------0------------------0------------------0-----------------0--|
G|-----0---------0--------0---------0--------0---------0-------0---------0----|
D|---0---------0--------0---------0--------0---------0-------0---------0------|
A|---------2h3----------------2h3----------------2h3---------------2h3--------|    2x
E|-3------------------3------------------3-----------------3------------------|



 - Pre Chorus:

e|--------------------------------------------------|
B|--------------------------------------------------|
G|-------0----------0---------0---------------------|
D|-----2---2------2---2-----0---0----0---0----------|
A|--------------3-----------------------------------|   
E|---0--------------------3--------3---2------------|   

e|--------------------------------------------------|
B|--------------------------------------------------|
G|-------0----------0---------0---------------------|
D|-----2---2------2---2-----0---0----0---0----------|
A|--------------3-----------------------------------|   
E|---0--------------------3--------3---2------------|  

e|--------------------------------------2---2h3p2---|
B|--------------------------------------------------|
G|-------0----------0---------0-------2---2---------|
D|-----2---2------2---2-----0---0---0---------------|
A|--------------3-----------------------------------|   
E|---0--------------------3-------------------------|       

e|--------------------------2---2h3p2---|
B|--------------------------------------|
G|-------0--------0-------2---2---------|
D|-----2---2----2---2---0---------------|
A|---3--------3-------------------------|   
E|--------------------------------------|  



 - Chorus:

e|----------------------------------------------|
B|--------0---------0---------0---------0-------|
G|----------------------------------------------|
D|------0---0-----2---2-----2---2-----2---2-----|
A|--------------3-------------------------------|    3x
E|----3-------------------0---------0-----------|  

e|----------------------------------------------|
B|--------0---------0---------0-------------0---|
G|--------------------------------------2-------|
D|------0---0-----2---2-----2---2---------------|
A|--------------3-------------------2h3---0-----|  
E|----3-------------------0---------------------|  



 - Verse:

e|----------------------------------------------------------------------------|
B|-----------------0------------------0------------------0-----------------0--|
G|-----0---------0--------0---------0--------0---------0-------0---------0----|
D|---0---------0--------0---------0--------0---------0-------0---------0------|
A|---------2h3----------------2h3----------------2h3---------------2h3--------|    2x
E|-3------------------3------------------3-----------------3------------------|



 - Pre Chorus:

e|--------------------------------------------------|
B|--------------------------------------------------|
G|-------0----------0---------0---------------------|
D|-----2---2------2---2-----0---0----0---0----------|
A|--------------3-----------------------------------|   
E|---0--------------------3--------3---2------------|   

e|--------------------------------------------------|
B|--------------------------------------------------|
G|-------0----------0---------0---------------------|
D|-----2---2------2---2-----0---0----0---0----------|
A|--------------3-----------------------------------|   
E|---0--------------------3--------3---2------------|  

e|--------------------------------------2---2h3p2---|
B|--------------------------------------------------|
G|-------0----------0---------0-------2---2---------|
D|-----2---2------2---2-----0---0---0---------------|
A|--------------3-----------------------------------|   
E|---0--------------------3-------------------------|        

e|--------------------------2---2h3p2---|
B|--------------------------------------|
G|-------0--------0-------2---2---------|
D|-----2---2----2---2---0---------------|
A|---3--------3-------------------------|   
E|--------------------------------------|  



 - Chorus:

e|----------------------------------------------|
B|--------0---------0---------0---------0-------|
G|----------------------------------------------|
D|------0---0-----2---2-----2---2-----2---2-----|
A|--------------3-------------------------------|    4x
E|----3-------------------0---------0-----------|  



 - Bridge:

e|----0--0--0----0--0--2--0-----0--0--0----0--0--2--0----2----|
B|----0--0--0----0--0--3--0-----0--0--0----0--0--3--0----3----|
G|----0--0--0----0--0--4--0-----0--0--0----0--0--4--0----2----|
D|----0--2--2----0--2--4--2-----0--2--2----0--2--4--2----0----|
A|----x--3--2----x--3--2--3-----x--3--2----x--3--2--3---------|    
E|----3--x--0----3--x-----0-----3--x--0----3--x-----0---------|  



 - Chorus:

e|--0--0--0--0----|
B|--0--0--0--0----|
G|--0--0--0--0----|
D|--0--2--2--2----| 
A|--x--3--2--3----|  Until the end
E|--3-----0-------|
            
Submit corrections

↑ Back to top | Tablatures and chords for acoustic guitar and electric guitar, ukulele, drums are parodies/interpretations of the original songs. You may use it for private study, scholarship, research or language learning purposes only