Home » N » Nat And Alex Wolff »

Nat And Alex Wolff - Maybe Tabs

Artists:  A B C D E F G H I J K L M N O P Q R S T U V W X Y Z # 

Maybe Tabs

(ver. 1) Click to play this song!
Nat And Alex Wolff

 - Riff:

e|-3-1-------------3-1-------------3-1------------------|
B|-----3-1---1---------3-1---1---------3-1---1----------|
G|---------3---3-----------3---3-----------3---3-0-3-2--|
D|------------------------------------------------------|
A|------------------------------------------------------|
E|------------------------------------------------------|


 - Verse 1:

   D#        F
Watch from afar
          Gm        
You were here only seconds ago
D#             F       Gm       
Running your hands through your hair
D#            F           Gm             
My eyes glazed over I'm gazing
                      D#                   F
And I am now noticed, I know we could be closer

 - Verse 1 riff:

e|---------------------------------------------------------|
B|---------------------------------------------------------|
G|-2-3-5--2-3-5--2-3-5--2-3-5--2-3-5--2-3-5--2-3-0--2-3-0--|
D|---------------------------------------------------------|  
A|---------------------------------------------------------|  
E|---------------------------------------------------------|

e|--------------------------------------------------|
B|---------------------3----------------------------|
G|-2-3-5--2-3-5--2-3-5---5~---2-3-5-----2-3--5-2----|
D|--------------------------------------------------|  
A|--------------------------------------------------|  
E|--------------------------------------------------|



 - Chorus:

D#       A#
Maybe there's a reason
Gm     C
I stand in your presence
D#               A#
I see you, you're unhappy
Gm      F
I can tell
D#      A#                  Gm
Maybe this is living, starring,
C
Without moving
D#               A#
Our signs are still vital
Gm        F
We're alive

 - Riff:

e|-3-1-------------3-1-------------3-1----------------------|
B|-----3-1---1---------3-1---1---------3-1---1--------------|
G|---------3---3-----------3---3-----------3---3-0-3-2-2-2--|
D|----------------------------------------------------------|
A|----------------------------------------------------------|
E|----------------------------------------------------------|

e|-3-1-------------3-1-------------3-1------------------|
B|-----3-1---1---------3-1---1---------3-1---1----------|
G|---------3---3-----------3---3-----------3---3-0-3-2--|
D|------------------------------------------------------|
A|------------------------------------------------------|
E|------------------------------------------------------|




 - Verse 2:

D#           F
You are so beautiful
Gm                 
I can't control myself
D#          F            Gm    
I cannot speak wouldn't dare
D#          F
Face so intense
             Gm
Filled with tears
            
Cry a sea, we can swim in
D#                       F
You know, I will find you


 - Verse 2 riff:

e|--------------------------------------------------|
B|-------------------------------------3----3---3---|
G|-2-3-5--2-3-5--2-3~-----2-3-5--2-3-5----5---5-----|
D|--------------------------------------------------|  
A|--------------------------------------------------|  
E|--------------------------------------------------|

e|--------------------------------------------------|
B|---------------------3----------------------------|
G|-2-3-5--2-3-5--2-3-5---5~---2-3-5-----2-3--5-2----|
D|--------------------------------------------------|  
A|--------------------------------------------------|  
E|--------------------------------------------------|



 - Chorus:

D#           A#
Maybe there's a reason
Gm      C
I stand in your presence
D#                 A#
I see you, you're happy
Gm     F
I can tell
D#      A#                 Gm
Maybe this is living, starring
C
Without moving
D#                A#
Our signs are still vital
Gm        F
We're alive


 - Riff:

e|-3-1-------------3-1-------------3-1----------------------|
B|-----3-1---1---------3-1---1---------3-1---1--------------|
G|---------3---3-----------3---3-----------3---3-0-3-2-2-2--|
D|----------------------------------------------------------|
A|----------------------------------------------------------|
E|----------------------------------------------------------|

e|-3-1-------------3-1-------------3-1------------------|
B|-----3-1---1---------3-1---1---------3-1---1----------|
G|---------3---3-----------3---3-----------3---3-0-3-2--|
D|------------------------------------------------------|
A|------------------------------------------------------|
E|------------------------------------------------------|



 - Bridge:

F       D#             C#         D#
I don't count you as a stranger  
F          D#          C#      D#
Though we never even spoke
F        D#              C#     D#
I don't see no harm no danger
F         D#           C#      D#
That this love might evoke



 - Chorus:

D#       A#
Maybe there's a reason
Gm     C
I stand in your presence
D#               A#
I see you're happy
Gm      F
I can tell
D#      A#                  Gm
Maybe this is living, starring
C
Without moving
D#               A#
Our signs are still vital
Gm        F
We're alive.
D#      A#                
Maybe this is the reason 
Gm     C
I stand in your presence
D#               A#
I see you're happy
Gm      F
I can tell
D#      A#                  Gm
Maybe this is living, starring
C
Without moving
D#               A#
Our signs are still vital
Gm        F
We're alive.
D#      A#               Gm     F
Maybe there's a reason we're alive


 - Riff:

e|-3-1-------------3-1-------------3-1------------------|
B|-----3-1---1---------3-1---1---------3-1---1----------|
G|---------3---3-----------3---3-----------3---3-0-3-2--|
D|------------------------------------------------------|
A|------------------------------------------------------|
E|------------------------------------------------------|
            
Submit corrections

↑ Back to top | Tablatures and chords for acoustic guitar and electric guitar, ukulele, drums are parodies/interpretations of the original songs. You may use it for private study, scholarship, research or language learning purposes only