Home » N » Nat And Alex Wolff »

Nat And Alex Wolff - Illuminated Chords

Artists:  A B C D E F G H I J K L M N O P Q R S T U V W X Y Z # 

Illuminated Chords

(ver. 2) Click to play this song!
Nat And Alex Wolff
 - Intro:

e|----------------------|
B|----------------------|
G|----------------------|
D|---------2---3--------|
A|----3--0---1----------|   2x
E|--1-------------------|



 - Verse:

e|----------------------|
B|----------------------|
G|----------------------|
D|---------2---3--------|
A|----3--0---1----------|   8x
E|--1-------------------|


        In my room I wonder why
        I am bare and hollow
        In my eyes I look for light
        And I try to follow

        In the wind my words appear
        To unfold their meaning
        Will they voice the things I fear
                             A#
        Or everything I'm dreaming



 - Chorus:

       A#           C
Am I illuminated?  
          D
Am I as bright as a streetlight?  
A#           C           D
Is this an illuminated dream?

       A#           C
Am I illuminated?  
          D
Am I as bright in a dark night?  
A#                          C
Is this an illuminated dream



 - Verse 2:

e|----------------------|
B|----------------------|
G|----------------------|
D|---------2---3--------|
A|----3--0---1----------|   6x
E|--1-------------------|


        In my room I search myself
        But the truth is fleeting
        Suddenly and everywhere
        It is you I'm seeing

        I can feel you oh so near
                           A#
        Will we find our meaning?



 - Chorus:

       A#           C
Am I illuminated?  
          D
Am I as bright as a streetlight?  
A#           C           D
Is this an illuminated dream?

       A#           C
Am I illuminated?  
          D
Am I as bright in a dark night?  
A#                          C
Is this an illuminated dream




 - Bridge:

Asus2                      F
 I know this moment plays out cinematically
G
Reeling, reeling
D                F
 I know I shout too enthusiastically
           G                  
Screaming, screaming, screaming!




 - Outro:

e|----------------------|
B|----------------------|
G|----------------------|
D|---------2---3--------|
A|----3--0---1----------|   4x
E|--1-------------------|

        Will we know when moments tell?
        Will we keep this feeling?



 - Chorus:

       A#           C
Am I illuminated?  
          D
Am I as bright as a streetlight?  
A#           C           D
Is this an illuminated dream?

       A#           C
Am I illuminated?  
          D
Am I as bright in a dark night?  
A#                                 F A A#
Is this an illuminated dream
     C          D
An illuminated dream
   A#         C         D
Is this an illuminated dream?
   A#                        C 
Is this an illuminated dream?



 - Final:

e|----------------------|
B|----------------------|
G|----------------------|
D|---------2---3--------|
A|----3--0---1----------|   2x
E|--1-------------------|            
Submit corrections

↑ Back to top | Tablatures and chords for acoustic guitar and electric guitar, ukulele, drums are parodies/interpretations of the original songs. You may use it for private study, scholarship, research or language learning purposes only