» » »

Name Taken - For Sunday Tabs

Artists:  A B C D E F G H I J K L M N O P Q R S T U V W X Y Z # 

For Sunday Tabs

(ver. 2) Click to play this song!
Name Taken
 Rating:
4/5 (4 votes)

 For Sunday lessons Tabs too difficult? Try these video lessons and learn fast
 
                Standard Tuning 
h - Hammer On 
p - Pull Off 
. - P.M 
R - Rest 
* - Harmonic 
~ - Let Ring 

Here is another one, it's pretty easy to play on guitar so just pay attention to 
the song, Name Taken has a lot of good songs but i think this is one of their 
best. 
-Figured out and submitted by "Hank the Tank" from Barstow, CA.... 
Dejackmo Von Rictor's drunk uncle 

Guitar 1(I guess, whatever)..Intro(0:00-0:16) 
e|------------------------| 
B|------------------------| 
G|-0----------0-----------| 
D|-5-(10x)----5-(10x)-----| 4x 
A|-7----------3-----------| 
E|-0----------0-----------| 
Guitar 2....Intro (Come in after 2x of guitar 1 playing his intro)(0:08) 
e|---------------------------------------------------------------------------| 
B|---------------------------------------------------------------------------| 
G|--7--5--4~-----4h5-----------4*--5*--4*--5*--------------------------------| 
D|-----------5~-------7~---7*------------------------------------------------| 
A|---------------------------------------------------------------------------| 
E|---------------------------------------------------------------------------| 
Guitar 1....Intro Cont.(0:17-0:48) 
e|------------------------------------| 
B|------------------------------------| 
G|----------7-7---------7-5-4---------| 
D|------------------------------------|16x maybe, I dunno I'm high 
A|------------------------------------| 
E|--0-0-R-0-----0-0-R-0---------------| 
    . .   .     . .   .
Guitar 2....Intro Cont.(0:17) 
e|-----------------| 
B|-----------------| 
G|-----------------| 
D|--2~---5~--------| 2x 
A|--2~---5~--------| 
E|--0~---3~--------| 
Guitar 2....Intro Cont.(0:32)(play while guitar 1 is still playing his thang') 
e|-----------------------------7-----------| 
B|----------10-10-----------10---8---------| 
G|-7-7-R-7---------7-7-R-7-----------------| 
D|-----------------------------------------|8x 
A|-----------------------------------------| 
E|-----------------------------------------| 
   . .   .         . .   .
Guitar 1....Pre-Verse(0:48) 
e|----------------------------------------------| 
B|----------------------------------------------| 
G|----------------------------------------------| 
D|-2------5------7------10------9---------------|2x 
A|-2-(8x)-5-(8x)-7-(8x)-10-(4x)-9-(4x)----------| 
E|-0------3------5------8-------7---------------| 
Guitar 2....Pre-Verse(0:48), It's easy This part at(0:54)(Do these both parts 2x) 
e|---------------------------------| e|--------------------------------------------| 
B|-10p8-8-10-8-8-10-12-10-8-8------| B|-10p8-12p8-10p8-12p8-10p8-12p8-10p8-12p8----| 
G|---------------------------------| G|--------------------------------------------| 
D|---------------------------------|3X D|--------------------------------------------|2x 
A|---------------------------------| A|--------------------------------------------| 
E|---------------------------------| E|--------------------------------------------| 
Guitar 1....Verse(1:05)Palm Mute 
e|----------------------------------------------| 
B|----------------------------------------------| 
G|----------------------------------------------| 
D|-2------5------7------10------9---------------|2x 
A|-2-(8x)-5-(8x)-7-(8x)-10-(4x)-9-(4x)----------| 
E|-0------3------5------8-------7---------------| 
Guitar 1....Chours(1:21) 
e|-------------------------------------| 
B|-------------------------------------| 
G|-5------7----------------------------| 
D|-5-(8x)-7-(8x)-2------5--------------|2x 
A|-3------5------2-(8x)-5-(8x)---------| 
E|---------------0------3--------------| 
Guitar 2....Chours(1:21) 
e|-----------------------------------------------------| 
B|-----------------------------------------------------| 
G|-5------7------9------10-----9-----------------------| 
D|-x-(8x)-x-(8x)-x-(4x)-x-(2x)-x-(2x)-5----------------|2x 
A|-3------5------7------8------7------5-(8x)-----------| 
E|------------------------------------3----------------| 
Guitar 1....I dunno, dope part(easy, fast)(1:37) 
e|----------------------| 
B|----------------------| 
G|-4p0-5p0-7p0-5p0------| 
D|----------------------|Lots of times 
A|----------------------| 
E|----------------------| 
Guitar 2....Comes in after 2x of guitar 1 is doing this bit(1:37) 
e|----------------------| 
B|----------------------| 
G|----------------------|Lots of times too 
D|-5p0-7p0-9p0-7p0------| 
A|----------------------| 
E|----------------------| 
Guitar1....(1:57) 
e|---------------------------------------------------------------------------| 
B|---------------------------------------------------------------------------| 
G|-12-------14-------16--------9-------9------10~----------------------------| 
D|--x-(8x)---x-(4x)---x-(6x)---x-(5x)R-x-(5x)-x-(1X)-------------------------|2x 
A|-10-------12-------14--------7-------7------8~-----------------------------| 
E|---------------------------------------------------------------------------| 
Guitar 2....(1:57) 
e|---------------------------------------------------------------------------| 
B|---------------------------------------------------------------------------| 
G|---------------------------------------------------------------------------| 
D|-5-------7-------9-----------2-------2------3~-----------------------------|2x 
A|-5-(8x)--7-(4x)--9-(6x)------2-(5x)R-2-(5x)-3-(1x)-------------------------| 
E|-3-------5-------7-----------0-------0------1~-----------------------------| 
Guitar 1....(2:14) 
e|---------------------------------------------------------------------------| 
B|---------------------------------------------------------------------------| 
G|-16-------14---------------------------------------------------------------| 
D|--x-(8x)---x-(8x)--5------2------2~----------------------------------------| 
A|-14-------12-------5-(2x)-2-(1x)-2~----------------------------------------| 
E|-------------------3------0------0~----------------------------------------| 
. . 
Guitar 2....(2:14) 
e|---------------------------------------------------------------------------| 
B|---------------------------------------------------------------------------| 
G|-4-------7-------9------11-------12----------------------------------------| 
D|-x-(8x)--x-(3X)--x-(3x)--x-(3x)---x-(3x)--5------2------2~-----------------| 
A|-2-------5-------7-------9-------10-------5-(2x)-2-(1x)-2~-----------------| 
E|------------------------------------------3------0------0~-----------------| 
. . 
Guitars 1 & 2(this part at 2:26) Then this part at (2:34) 
e|-------| e|------------------------------------------| 
B|-------| B|------------------------------------------| 
G|-------| G|------------------------------------------| 
D|-2~----| D|-2~----5~----7~---10~----9~---------------| 
A|-2~----| A|-2~----5~----7~---10~----9~---------------| 
E|-0~----| E|-0~----3~----5~----8~----7~---------------| 

Guitar 1....Chours(2:42) 
e|-------------------------------------| 
B|-------------------------------------| 
G|-5------7----------------------------| 
D|-5-(8x)-7-(8x)-2------5--------------|2x 
A|-3------5------2-(8x)-5-(8x)---------| 
E|---------------0------3--------------| 
Guitar 2....Chours(2:42) 
e|-----------------------------------------------------| 
B|-----------------------------------------------------| 
G|-5------7------9------10-----9-----------------------| 
D|-x-(8x)-x-(8x)-x-(4x)-x-(2x)-x-(2x)-5----------------|2x 
A|-3------5------7------8------7------5-(8x)-----------| 
E|------------------------------------3----------------| 
Guitar 1....I dunno, dope part(easy, fast)(2:59) 
e|----------------------| 
B|----------------------| 
G|-4p0-5p0-7p0-5p0------| 
D|----------------------|Lots of times 
A|----------------------| 
E|----------------------| 
Guitar 2....Comes in after 2x of guitar 1 is doing this bit(2:59) 
e|----------------------| 
B|----------------------| 
G|----------------------|Lots of times too 
D|-5p0-7p0-9p0-7p0------| 
A|----------------------| 
E|----------------------| 
Guitar 2....(3:19)....Okay, repeat this process for Guitar 2 but then change the cord to G 
e|---------------------------------------------------------------------------| 
B|---------------------------------------------------------------------------| 
G|---------------------------------------------------------------------------| 
D|-2--------------2--------------2--------------2----------------------------|6x 
A|-2-(4X)---------2-(4x)---------2-(4x)---------2-(4x)-----------------------| 
E|-0--------------0--------------0--------------0----------------------------| 
Guitar 1....(3:19) 
e|---------------------------------------------------------------------------| 
B|---------------------------------------------------------------------------| 
G|--------11-------------12-------------16-------------14--------------------| 
D|---------x-(4x)---------x-(4x)---------x-(4x)---------x-(4x)---------------|6X 
A|---------9-------------10-------------14-------------12--------------------| 
E|---------------------------------------------------------------------------| 
Theres more for guitar 2 but im just to lazy, my bass player night have tabbed 
the bass so look at that 
Guitar 1 & 2 I guess(3:43)....>=8 Times, <=Certain count 
e|---------------------------------------------------------------------------| 
B|---------------------------------------------------------------------------| 
G|---11----12----14----16----17----21----22----------------------------------| 
D|---x-->---x->---x->---x->---x->---x->---x-<--------------------------------| 
A|---9-----10----12----14----15----19----20----------------------------------| 
E|---------------------------------------------------------------------------| 
Guitar 1....Chours(3:59) 
e|-------------------------------------| 
B|-------------------------------------| 
G|-5------7----------------------------| 
D|-5-(8x)-7-(8x)-2------5--------------|2x 
A|-3------5------2-(8x)-5-(8x)---------| 
E|---------------0------3--------------| 
Guitar 2....Chours(1:21) 
e|-----------------------------------------------------| 
B|-----------------------------------------------------| 
G|-5------7------9------10-----9-----------------------| 
D|-x-(8x)-x-(8x)-x-(4x)-x-(2x)-x-(2x)-5----------------|2x 
A|-3------5------7------8------7------5-(8x)-----------| 
E|------------------------------------3----------------| 
Guitar 1....(4:15-4:30) 
e|------------------------------------| 
B|------------------------------------| 
G|----------7-7---------7-5-4---------| 
D|------------------------------------|I dunno I'm high 
A|------------------------------------| 
E|--0-0-R-0-----0-0-R-0---------------| 
    . .   .     . .   .
Guitar 2....(4:19)(play while guitar 1 is still playing his thang') 
e|-----------------------------7-----------| 
B|----------10-10-----------10---8---------| 
G|-7-7-R-7---------7-7-R-7-----------------| 
D|-----------------------------------------|6X 
A|-----------------------------------------| 
E|-----------------------------------------| 
   . .   .     . .   .
Guitar1....(4:30) 
e|-----------------------------------------------| 
B|-----------------------------------------------| 
G|-9-------9------10~----------------------------| 
D|-x-(5x)R-x-(5x)-x-(1X)-------------------------|2x 
A|-7-------7------8~-----------------------------| 
E|-----------------------------------------------| 
Guitar 2....(4:30) 
e|-----------------------------------------------| 
B|-----------------------------------------------| 
G|-----------------------------------------------| 
D|-2-------2------3~-----------------------------|2x 
A|-2-(5x)R-2-(5x)-3-(1x)-------------------------| 
E|-0-------0------1~-----------------------------| 
Guitar 1....Outro(4:34) 
e|------------------------------------| 
B|------------------------------------| 
G|----------7-7---------7-5-4---------| 
D|------------------------------------|2x 
A|------------------------------------| 
E|--0-0-R-0-----0-0-R-0---------------| 
    . .   .     . .   . 
Guitar 2....Outro(4:34) 
e|-----------------------------7-----------| 
B|----------10-10-----------10---8---------| 
G|-7-7-R-7---------7-7-R-7-----------------| 
D|-----------------------------------------|2x 
A|-----------------------------------------| 
E|-----------------------------------------| 
   . .   .     . .   .
Guitar1....(4:38) 
e|-----------------------------------------------| 
B|-----------------------------------------------| 
G|-9-------9------10~----------------------------| 
D|-x-(5x)R-x-(5x)-x-(1X)-------------------------|2x 
A|-7-------7------8~-----------------------------| 
E|-----------------------------------------------| 
Guitar 2....(4:38) 
e|-----------------------------------------------| 
B|-----------------------------------------------| 
G|-----------------------------------------------| 
D|-2-------2------3~-----------------------------|2x 
A|-2-(5x)R-2-(5x)-3-(1x)-------------------------| 
E|-0-------0------1~-----------------------------| 
Guitar 1....(4:42) 
e|---------------------------------------------------------------------------| 
B|---------------------------------------------------------------------------| 
G|-16-------14---------------------------------------------------------------| 
D|--x-(8x)---x-(8x)--5------2------2~----------------------------------------| 
A|-14-------12-------5-(2x)-2-(1x)-2~----------------------------------------| 
E|-------------------3------0------0~----------------------------------------| 
                     .      .
Guitar 2....(4:42) 
e|---------------------------------------------------------------------------| 
B|---------------------------------------------------------------------------| 
G|-4-------7-------9------11-------12----------------------------------------| 
D|-x-(8x)--x-(3X)--x-(3x)--x-(3x)---x-(3x)--5------2------2~-----------------| 
A|-2-------5-------7-------9-------10-------5-(2x)-2-(1x)-2~-----------------| 
E|------------------------------------------3------0------0~-----------------| 
                                            .      .
Woo, ***!, that was long!, its like pretty much right 
Cheak us out!, The Waiting Hurt 

"I'll let the ashes go, this wound you can't replace"
            
Submit corrections


        For Sunday lessons Hard to play? Try these video lessons and learn fast For Sunday lessons
        
↑ Back to top | Tablatures and chords for acoustic guitar and electric guitar, ukulele, drums are parodies/interpretations of the original songs. You may use it for private study, scholarship, research or language learning purposes only