» » »

My Chemical Romance - Summertime Acoustic Tabs

Artists:  A B C D E F G H I J K L M N O P Q R S T U V W X Y Z # 

Summertime Acoustic Tabs

(ver. 2) Click to play this song!
My Chemical Romance
 Rating:
4.3/5 (29 votes)

 Summertime Acoustic lessons Tabs too difficult? Try these video lessons and learn fast
 
                [intro guitar 1]
(starts at 0.07) (play through verse)
e|---------------------------------------------------------------------------|
B|-3-3-3-3-3-3--10-7--7--7-7-7-8-8-8-8-8-10-7-7-7/2-2-2-2-3-3-3-3-3-3-10-7--7|
G|---------------------------------------------------------------------------|
D|---------------------------------------------------------------------------|
A|---------------------------------------------------------------------------|
E|---------------------------------------------------------------------------|

e|---------------------------------------------------------------------------|
B|--7-7-7-7--10x12-----------------------------------------------------------|
G|---------------------------------------------------------------------------|
D|---------------------------------------------------------------------------|
A|---------------------------------------------------------------------------|
E|---------------------------------------------------------------------------|

[intro guitar 2]
(starts at 0.21) (play once)
e|---------------------------------------------------------------------------|
B|-3---8-7-5-2---8-7-5-0---8-7-5-10-8-7-5------------------------------------|
G|---------------------------------------------------------------------------|
D|---------------------------------------------------------------------------|
A|---------------------------------------------------------------------------|
E|---------------------------------------------------------------------------|

[solo guitar 1](starts 2.21)(play twice)
e|---------------------------------------------------------------------------|
B|--5/7-7-7-7-5-7-10-7-7777-5/7-7-7-7-7-5-7----------------------------------|
G|---------------------------------------------------------------------------|
D|---------------------------------------------------------------------------|
A|---------------------------------------------------------------------------|
E|---------------------------------------------------------------------------|

[solo guitar 2](starts 2.35)(play once)
e|10---9---7---9-------------------------------------------------------------|
B|--10--10--10--10-----------------------------------------------------------|
G|---------------------------------------------------------------------------|
D|---------------------------------------------------------------------------|
A|---------------------------------------------------------------------------|
E|---------------------------------------------------------------------------|

[solo guitar 1 continued](2.42)
e|---------------------------------------5-----------------------------------|
B|-10-10-10-3-3-3-10-10-10-2-2-2-5-5-5/7-------10-10-10-3-3-3-10-10-10 2-2-2-|
G|-----------------------------------------7-6-------------------------------|
D|---------------------------------------------------------------------------|
A|---------------------------------------------------------------------------|
E|---------------------------------------------------------------------------|

e|------------5-7-7-7/9-10-9-7-9-10-9-5-12-12/14-14-14-14-7-7/9-10-9-7-9-10-9|
B|-5-5-5/7-7-7---------------------------------------------------------------|
G|---------------------------------------------------------------------------|
D|---------------------------------------------------------------------------|
A|---------------------------------------------------------------------------|
E|---------------------------------------------------------------------------|

e|--7/9-10-9-7-9-10-9-5-9-10-------------------------------------------------|
B|---------------------------------------------------------------------------|
G|---------------------------------------------------------------------------|
D|---------------------------------------------------------------------------|
A|---------------------------------------------------------------------------|
E|---------------------------------------------------------------------------|

[outro guitar 1](starts 3.50)
e|-3-3-3-3-3-3--10-7--7--7-7-7-8-8-8-8-8-10-7~-------------------------------|
B|---------------------------------------------------------------------------|
G|---------------------------------------------------------------------------|
D|---------------------------------------------------------------------------|
A|---------------------------------------------------------------------------|
E|---------------------------------------------------------------------------|            
Submit corrections


        Summertime Acoustic lessons Hard to play? Try these video lessons and learn fast Summertime Acoustic lessons
        
↑ Back to top | Tablatures and chords for acoustic guitar and electric guitar, ukulele, drums are parodies/interpretations of the original songs. You may use it for private study, scholarship, research or language learning purposes only