Home » M » My Chemical Romance »

My Chemical Romance - Cancer Tabs

Artists:  A B C D E F G H I J K L M N O P Q R S T U V W X Y Z # 

Cancer Tabs

(ver. 2) Click to play this song!
My Chemical Romance
 Rating:
4.3/5 (16 votes)
                [Verse 1]
 
e|---------7-7-9-9-11-11-12~--11-9--------------|
B|-5/7-9-9-------------------9----9--12-10-9----|
G|---------------------------------9---------11-|
D|----------------------------------------------|
A|----------------------------------------------|
E|----------------------------------------------|
 
e|------------------7-7-9-9-11-11-12~--11-9------------------------------------------|
B|-10-9-9----10-9-9-------------------9----9--12-10-9----12-10----12-10-9----12-10-9-|
G|--------11--------------------------------9---------11-------11---------11---------|
D|-----------------------------------------------------------------------------------|
A|-----------------------------------------------------------------------------------|
E|-----------------------------------------------------------------------------------|
 
 
[Chorus]
 
e|----------------------------------------------|
B|-10-10-9-7-------7-9-10-9-7---------------7---|
G|-----------9-9/5------------9-9-8-5-8-9-9---9-|
D|----------------------------------------------|
A|----------------------------------------------|
E|----------------------------------------------|
 
 
[Verse 2]
 
e|-----------7-7-9-9-11-11-12~--11-9--------------|
B|-5-5/7-9-9-------------------9----9--12-10-9----|
G|-----------------------------------9---------11-|
D|------------------------------------------------|
A|------------------------------------------------|
E|------------------------------------------------|
 
e|------------------7-7-9-9-11-11-12~--11-9------------------------------------------|
B|-10-9-9----10-9-9-------------------9----9--12-10-9----12-10----12-10-9----12-10-9-|
G|--------11--------------------------------9---------11-------11---------11---------|
D|-----------------------------------------------------------------------------------|
A|-----------------------------------------------------------------------------------|
E|-----------------------------------------------------------------------------------|
 
 
[Chorus]
 
e|----------------------------------|
B|-10-10-9-7---------9-10-9-7-------|
G|-----------9-9-8-9----------9-9\5-|
D|----------------------------------|
A|----------------------------------|
E|----------------------------------|
 
 
[Bridge]
 
e|-------4-------4-------5-4---|
B|-----9-------9-------9-------|
G|-5-6-----5-6-----5-7-------5-|
D|-----------------------------|
A|-----------------------------|
E|-----------------------------|
 
 
[Chorus]
 
e|-----------------------------------------------------------|
B|-7-9-10-9-7---------------7---7-9-10-9-7---------------7---|
G|------------9-9-8-5-8-9-9---9------------9-9-8-5-8-9-9---9-|
D|-----------------------------------------------------------|
A|-----------------------------------------------------------|
E|-----------------------------------------------------------|
            
Submit corrections

↑ Back to top | Tablatures and chords for acoustic guitar and electric guitar, ukulele, drums are parodies/interpretations of the original songs. You may use it for private study, scholarship, research or language learning purposes only