» » »

Mxpx - Wrecking Hotel Rooms Tabs

Artists:  A B C D E F G H I J K L M N O P Q R S T U V W X Y Z # 

Wrecking Hotel Rooms Tabs

(ver. 2) Click to play this song!
Mxpx
 Rating:
4/5 (4 votes)

 Wrecking Hotel Rooms lessons Tabs too difficult? Try these video lessons and learn fast
 
                Album:Panic

B|----------------------------------------------|
G|----------------------------------------------|
D|---77744554-44455444-44422444-44422000--------|
A|---55555555-00000000-22222222-xxxxxxxx--------| 
E|------------------------------33333333--------|
 Intro^                2x
  
e|---0--0--0--3-----|-----------------------------------------|
B|---0--0--0--3-----|-----------------------------------------|
G|---7--6--7--0-----|-----------------------------------------|
D|---7--7--7--0-----|-----4--4--5--5--2---2---0----0----0-----|
A|---5--0--5--2-----|---00-00-00-00---------------------------| 
E|---------7--3-----|---------------00-022-233--333--333--33--|
 Verse^  2x  

e|----------------------------------------------|
B|----------------------------------------------|
G|----------------------------------------------|
D|---77744554-44455444-44422444-44422000--------|
A|---55555555-00000000-22222222-xxxxxxxx--------|
E|------------------------------33333333--------|
 Chorus^             2x

e|---0--0--0--0--3-----|-----------------------------------------|
B|---0--0--0--0--3-----|-----------------------------------------|
G|---7--6--7--6--0-----|-----------------------------------------|
D|---7--7--7--7--0-----|-----4--4--5--5--2---2---0----0----0-----|
A|---5--0--5--7--2-----|---00-00-00-00---------------------------| 
E|---------7--5--3-----|---------------00-022-233--333--333--33--|
 2nd Verse^  2x  

e|---------------------------|
B|---------------------------|
G|---77----------------------|
D|---77-454----99----77------|
A|---55----757-99-57-77-45---| 
E|-------------77----55------|
 Bridge^    2x

e|---------------------------------------------------------------------|
B|---------------------------------------------------------------------|
G|---------------------------------------------------------------------|
D|---222-444-55555-222-444-55555-222-444-55555-7777777777777777777-----|
A|---222-444-55555-222-444-55555-222-444-55555-7777777777777777777-----| 
E|---000-222-33333-000-222-33333-000-222-33333-5555555555555555555-----|
 Guitar 1 with solo

e|---------------------------------------------------------------------|
B|--------------------------77--------------------------10----8---7----|
G|---7-----7h9-7h9-7-----7h9--9p7--7-9-11-12-12h14-12-11--11-9-9-7-9p7-|
D|----979-9---9-----979-9---------4-7-9--9-----------------------------|
A|---------------------------------------------------------------------| 
E|---------------------------------------------------------------------|
 Guitar 2 Solo                              ^             2x          ^

e|-----------------------------------------------|
B|-----------------------------------------------|
G|---7777777-------------------------------------|
D|---7777777-7777777-7777777-5555555-------------|
A|---5555555-7777777-5555555-5555555-------------| 
E|-----------5555555-7777777-3333333-------------|
"Bridge" Chorus - palm muted

e|-------------------------------------------0---|
B|-------------------------------------------0---|
G|-------------------------------------------7---|
D|---77744554-44455444-44422444-44422000-----7---|
A|---55555555-00000000-22222222-xxxxxxxx-----5---| 
E|------------------------------33333333---------|
 Chorus till end.                        ***END***
            
Submit corrections


        Wrecking Hotel Rooms lessons Hard to play? Try these video lessons and learn fast Wrecking Hotel Rooms lessons
        
↑ Back to top | Tablatures and chords for acoustic guitar and electric guitar, ukulele, drums are parodies/interpretations of the original songs. You may use it for private study, scholarship, research or language learning purposes only