» » »

Mxpx - Without You Tabs

Artists:  A B C D E F G H I J K L M N O P Q R S T U V W X Y Z # 

Without You Tabs

(ver. 1) Click to play this song!
Mxpx
 Rating:
4/5 (4 votes)

 Without You lessons Tabs too difficult? Try these video lessons and learn fast
 
                Tuning: Standard


abot=a bunch of times
*=palm mute

(00:00)
E|----------------|
B|----------------|
G|----5--4--0--4~-|
D|----------------|
A|-3--------------|
E|----------------|

(00:06)
     * abot  * abot
E|-----------------------------------------------|   
B|-----------------------------------------------|  
G|-----------------------------------------------| 2x
D|-----------------------------------------------|    
A|-5-5-abot--4-abot--3-33323555555-3-33323555555-|   
E|-3-3-abot--2-abot------------------------------|    

(00:26)
E|--------------------------|
B|--------------------------|
G|-------------5~-----------|
D|-5~--4~--2~--5~--55555555-|
A|-5~--4~--2~--3~--33333333-|
E|-3~--2~--0~---------------|

(00:36)
     * abot  * abot
E|-----------------------------------------------|   
B|-----------------------------------------------|  
G|-----------------------------------------------| 2x
D|-----------------------------------------------|    
A|-5-5-abot--4-abot--3-33323555555-3-33323555555-|   
E|-3-3-abot--2-abot------------------------------|    
   

(00:57)
E|--------------------------|
B|--------------------------|
G|-------------5~-----------|
D|-5~--4~--2~--5~--55555555-|
A|-5~--4~--2~--3~--33333333-|
E|-3~--2~--0~---------------|

(01:07)
E|--------------------------------------|
B|--------------------------------------|
G|--------------------------------4/555-| 2x
D|----------------4-abot--5-abot--4/555-|
A|-5-abot--2-abot-2-abot--3-abot--2/333-|
E|-3-abot--0-abot-----------------------|

(01:30)
E|-------3-2-3~--------3-5-2~--------3-2-0~-| ¯¯|
B|------0-0-0---------0-0-0---------0-0-0---|   |
G|------------------------------------------|   |
D|-(5)~----------(4)~----------(2)~---------|   |
A|-(5)~----------(4)~----------(2)~---------|   |
E|-(3)~----------(2)~----------(0)~---------|    \
                                                  }-3x
   **   **   **   **                             /
E|--------------------|                         |
B|--------------------|                         |
G|--------------------|                         |
D|---5----5----5----5-|                         |
A|-553--553--553--553-|                         |
E|-33---33---33---33--|                       __|

(02:00)
E|------|
B|------|
G|------|
D|------|
A|-10/5-|
E|-8-/3-|

(02:01)
E|--------------------------------------|
B|--------------------------------------|
G|--------------------------------4/555-| 2x
D|----------------4-abot--5-abot--4/555-|
A|-5-abot--2-abot-2-abot--3-abot--2/333-|
E|-3-abot--0-abot-----------------------|

(02:22)
E|-------------------|
B|-------------------|
G|----5--4--0--4--4~-|
D|-------------------|
A|-3--------------2~-|
E|-------------------|
            
Submit corrections


        Without You lessons Hard to play? Try these video lessons and learn fast Without You lessons
        
↑ Back to top | Tablatures and chords for acoustic guitar and electric guitar, ukulele, drums are parodies/interpretations of the original songs. You may use it for private study, scholarship, research or language learning purposes only