» » »

Mxpx - Tomorrow's Another Day Tabs

Artists:  A B C D E F G H I J K L M N O P Q R S T U V W X Y Z # 

Tomorrow's Another Day Tabs

(ver. 1) Click to play this song!
Mxpx
 Rating:
4/5 (4 votes)

 Tomorrow's Another Day lessons Tabs too difficult? Try these video lessons and learn fast
 
                x = palm mute
~ = let ring


Intro:
|-------------|---------------------------------|
|-------------|---------------------------------|
|-------------|-4444444---------6666666---------|
|-444444444444|-4444444-4444444-6666666-2222222-|  x2
|-444444444444|-2222222-4444444-4444444-2222222-|
|-222222222222|---------2222222---------0000000-|
  xxxxxxxxx     xxxxxxx xxxxxxx xxxxxxx xxxxxxx 

Verse:
|-------------------------|
|-------------------------|
|-4~------------6~--------|
|-4~-----4~-----6~-----2~-|  x4
|-2~-----4~-----4~-----2~-|
|--------2~------------0~-|

Chorus:
|-----------------------|
|-----------------------|
|-44--------------------|
|-44--44----22222222222-|
|-22--44----22222222222-|
|-----22----00000000000-|


|-----------------------------------|
|-----------------------------------|
|-44--------------------------------|
|-44--44----22222222222-44444444444-|
|-22--44----22222222222-44444444444-|
|-----22----00000000000-22222222222-|

Bridge:
|----------------------------|
|----------------------------|
|-8--6--4--3----8-6-4--8-6-4-|
|-x--x--x--x----x-x-x--x-x-x-|  x2
|-6--4--2--1----6-4-2--6-4-2-|
|----------------------------|

|-------------------------------------|
|-------------------------------------|
|-4~------------6~--------------------|
|-4~-----4~-----6~-----22222222222222-|
|-2~-----4~-----4~-----22222222222222-|
|--------2~------------00000000000000-|
                       xxxxxxxxxxxxxx

VERSE
CHORUS

Second Bridge:

1st guitar:
|-----------------------------|
|-----------------------------|
|-4~------------6~------------|
|-4~-----4~-----6~-----2~--4~-| x3
|-2~-----4~-----4~-----2~--4~-|
|--------2~------------0~--2~-|

2nd guitar (enter after the 1st guitar has played his part one time):
|-----------------------------|
|-444444444444444444444444444-|
|-444444444444444444444444444-|
|-444444444444444444444444444-| x2
|-222222222222222222222222222-|
|-----------------------------|

1st guitar (clean):
|-----------------------------|
|-----------------------------|
|-4~------------6~------------|
|-4~-----4~-----6~-----2~--4~-| x2
|-2~-----4~-----4~-----2~--4~-|
|--------2~------------0~--2~-|


Outro:

1st guitar:
|---------------------------------|
|---------------------------------|
|-4444444---------6666666---------|
|-4444444-4444444-6666666-2222222-|  x4
|-2222222-4444444-4444444-2222222-|
|---------2222222---------0000000-|

2nd guitar (enter after 1st guitar plays his part 2 times):
|----------------------------------|
|----------------------------------|
|-11111111111111111111111111111111-|
|-x-x-x-x-x-x-x-x-x-x-x-x-x-x-x-x--|  x2
|-9-9-9-9-9-9-9-9-9-9-9-9-9-9-9-9--|
|----------------------------------|

End on:
|---|
|---|
|-4-|
|-4-|
|-2-|
|---|
            
Submit corrections


        Tomorrow's Another Day lessons Hard to play? Try these video lessons and learn fast Tomorrow's Another Day lessons
        
↑ Back to top | Tablatures and chords for acoustic guitar and electric guitar, ukulele, drums are parodies/interpretations of the original songs. You may use it for private study, scholarship, research or language learning purposes only