» » »

Mxpx - Tomorrow Is Another Day Tabs

Artists:  A B C D E F G H I J K L M N O P Q R S T U V W X Y Z # 

Tomorrow Is Another Day Tabs

(ver. 1) Click to play this song!
Mxpx
 Rating:
4/5 (4 votes)

 Tomorrow Is Another Day lessons Tabs too difficult? Try these video lessons and learn fast
 
                Band - MXPX
Song – Tomorrow Is Another Day
Album(s)- Slowly Going The Way Of The Buffalo, At The Show, Ten Years and Running


Standard Tuning

S= put hand over strings and stop sound
*= let note/chord ring
v= palm mute

Intro part 1 (palm muted)
----------------------------------------------------------
----------------------------------------------------------
----------------------------------------------------------
-444444444444444------------------------------------------
-444444444444444------------------------------------------
-222222222222222------------------------------------------

Verse
----------------------------------------------------------
----------------------------------------------------------
-4444444----------66666666--------------------------------
-4444444-44444444-66666666-22222222-----------------------
-2222222-44444444-44444444-22222222-----------------------
---------22222222----------00000000-----------------------

Chorus (“I don’t wanna let my life fly by, do you ever stop to wonder why”)
----------------------------------------------------------
----------------------------------------------------------
-44s-33s--------------44s-33s-----------------------------
-44s-44s-222222222222-44s-44s-2222222222222222222222222---
-22s-11s-222222222222-22s-11s-2222222222222222222222222---
---------000000000000---------0000000000000000000000000---

Post-Chorus
----------------------------------------------------------
----------------------------------------------------------
-88-6-4-3---9-8-4-9-8-6---88-6-4-3-9-8-4-9-8-6------------
-xx-x-x-x---x-x-x-x-x-x---xx-x-x-x-x-x-x-x-x-x------------
-66-4-2-1---7-6-2-7-6-4---66-4-2-1-7-6-2-7-6-4------------
----------------------------------------------------------
          vvvvvvvvvvvvvvvv                  
----------------------------------------------------------
----------------------------------------------------------
-4*----6*-------------------------------------------------
-4*-4*-6*-2222222222222222--------------------------------
-2*-4*-4*-2222222222222222--------------------------------
----2*----0000000000000000--------------------------------


Bridge part 1
----------------------------------------------------------
----------------------------------------------------------
-4*----6*-------------------------------------------------
-4*-4*-6*-2-4---------------------------------------------
-2*-4*-4*-2-4---------------------------------------------
----2*----0-2---------------------------------------------

Bridge part 2
----------------------------------------------------------
----------------------------------------------------------
-44444444444--------------666666666666--------------------
-44444444444-444444444444-666666666666-222222-444444------
-22222222222-444444444444-444444444444-222222-444444------
-------------222222222222--------------000000-222222------

Ending Riff part 1 (“I don’t want to, I don’t want to, I don’t want to and you don’t want to”)
----------------------------------------------------------
----------------------------------------------------------
888-444-888-444-888-999-8-6-4-6---------------------------
xxx-xxx-xxx-xxx-xxx-xxx-x-x-x-x---------------------------
666-222-666-222-666-777-6-4-2-4---------------------------
----------------------------------------------------------

Ending Riff part 2
----------------------------------------------------------
----------------------------------------------------------
1111111111111111111111111111111111--8-6-4-6---------------
x-x-x-x-x-x-x-x-x-x-x-x-x-x-x-x-x---x-x-x-x---------------
9—9—9—9—9—9—9—9—9—9—9—9—9—9—9—9—9---6-4-2-4---------------
----------------------------------------------------------

order:

intro part 1 (1x)
verse (clean and palm muted) (2x)
Ring E5 chord
Verse (distorted) (4x)
Chorus (1x)
Post-Chorus 1x (1x) (2nd guitar can play verse)
Verse (4x)
Chorus (1x)
Bridge part 1 (1x)
Bridge part 2 (2x)
Bass break (quiet part)
Ending Riff 1 (2x) (2nd guitar can play verse)
Ending Riff 2 (2x) (2nd guitar can play verse)
End on B5
            
Submit corrections


        Tomorrow Is Another Day lessons Hard to play? Try these video lessons and learn fast Tomorrow Is Another Day lessons
        
↑ Back to top | Tablatures and chords for acoustic guitar and electric guitar, ukulele, drums are parodies/interpretations of the original songs. You may use it for private study, scholarship, research or language learning purposes only