» » »

Mxpx - Today Is In My Way Tabs

Artists:  A B C D E F G H I J K L M N O P Q R S T U V W X Y Z # 

Today Is In My Way Tabs

(ver. 3) Click to play this song!
Mxpx
 Rating:
4/5 (4 votes)

 Today Is In My Way lessons Tabs too difficult? Try these video lessons and learn fast
 
                This is the first song I learned to play and I know its completely correct. Standard tuning

Guitar 1 Intro
E/--------------------------------------------------------------/
B/--------------------------------------------------------------/
G/--------------------------------------------------------------/
D/-----2-h5-p2-3-2-----2-h5-p2-3-2-----2-h5-p2-3-2-5-7-5-3-2-3-5/
A/--3-5-------------3-5-------------3-5-----------5-------------/
E/--------------------------------------------------------------/

Guitar Intro (Cont.)
E/------------------------------------------------------/
B/------------------------------------------------------/
G/--------------------------------------------------5-5-/
D/-----2-h5-p2-3-2------2-h5-p2-3-2-----2-h5-p2-3-2-----/
A/--3-5-------------3-5-------------3-5------------3-3--/
E/------------------------------------------------------/

Guitar 2 Intro (LR= Let ring)
E/-------------------------------------/
B/-------------------------------------/
G/--5---------------555---------------7/
D/--5LR-5---7---3---555LR-5---7---3-2-7/
A/--3---5LR-7LR-3LR-333---5LR-7LR-3-2-5/
E/------3---5---1---------5---5---1-0--/

Verse (Fast Drums)
E/---------------------------------/
B/---------------------------------/
G/--555-555------------------------/ x2
D/--555-555-555-555-777-777-333-333/
A/--333-333-555-555-777-777-333-333/
E/----------333-333-555-555-111-111/

Verse (Cont.)
E/-------------------------------/
B/-------------------------------/
G/--55-555-----------------------/ x2
D/--55-555-555-555-77-777-333-333/
A/--33-333-555-555-77-777-333-333/
E/---------333-333-55-555-111-111/





Chorus
E/----------------------------------------------------------/
B/----------------------------------------------------------/
G/------------------------------55-5555-55-555--------------/ x2
D/--77-777-77-777-33-333-33-333-55-5555-55-555-55-555-55-555/
A/--77-777-77-777-33-333-33-333-33-3333-33-333-55-555-55-555/
E/--55-555-55-555-11-111-11-111----------------33-333-33-333/

Chorus Ending
E/-------------------------------/
B/-------------------------------/
G/--55-555-----------------------/ x2
D/--55-555-333-333-77-777-555-555/
A/--33-333-333-333-77-777-555-555/
E/---------111-111-55-555-333-333/

Intro #2
E/-------------------------------------/
B/-------------------------------------/
G/--5---------------555---------------7/
D/--5LR-5---7---3---555LR-5---7---3-2-7/
A/--3---5LR-7LR-3LR-333---5LR-7LR-3-2-5/
E/------3---5---1---------5---5---1-0--/

Bridge
E/-----------------------------------------------------/
B/-----------------------------------------------------/
G/--5---555---555----5-----5---5-555----5--------------/
D/--5LR-555LR-555-55-5-5LR-5-5-5-555-55-5-5------------/
A/--3---333---333-33-3-3---3-3-3-333-33-3-3-(Pickslide)/
E/------------------------------------------(Pickslide)/

Last Chorus
E/-------------------------------/
B/-------------------------------/
G/--55-555-----------------------/ x2
D/--55-555-333-333-77-777-555-555/
A/--33-333-333-333-77-777-555-555/
E/---------111-111-55-555-333-333/

Ending
E/--------------------------------------------------------------/
B/--------------------------------------------------------------/
G/------------------------------------------------5-------------/
D/-----2-h5-p2-3-2-----2-h5-p2-3-2-----2-h5-p2-3-2-5-7-5-3-2-3-5/
A/--3-5-------------3-5-------------3-5-------------------------/
E/--------------------------------------------------------------/



Ending (Cont.)
E/------------------------------------------------------/
B/------------------------------------------------------/
G/--------------------------------------------------5-5-/
D/-----2-h5-p2-3-2------2-h5-p2-3-2-----2-h5-p2-3-2-----/
A/--3-5-------------3-5-------------3-5------------3-3--/
E/------------------------------------------------------/

Order

Intro
Verse
Chorus
Intro #2
Verse
Chorus
Bridge
Last Chorus
Ending
            
Submit corrections


        Today Is In My Way lessons Hard to play? Try these video lessons and learn fast Today Is In My Way lessons
        
↑ Back to top | Tablatures and chords for acoustic guitar and electric guitar, ukulele, drums are parodies/interpretations of the original songs. You may use it for private study, scholarship, research or language learning purposes only