» » »

Mxpx - Take On Me Tabs

Artists:  A B C D E F G H I J K L M N O P Q R S T U V W X Y Z # 

Take On Me Tabs

(ver. 2) Click to play this song!
Mxpx
 Rating:
4/5 (4 votes)

 Take On Me lessons Tabs too difficult? Try these video lessons and learn fast
 
                E|-------------|-------------|----------------|-----------------------|
B|-------------|---5-5-6-8---|-6-6-6----------|-----------------------|
G|--777----55--|-5-----------|-------5---7-7--|-7-5-5-7-5-------------|
D|------85-----|-------------|---------7------|-----------------------|
A|-------------|-------------|----------------|-----------------------|
E|-------------|-------------|----------------|-----------------------|  x2

E|--------------------------------------------------------------------|
B|--------------------------------------------------------------------|
G|-----------5-5-5-5-----------3-3------------------------------------|
D|--5-5-5-5--5-5-5-5--3-3-3-3--3-3--7-7-------------------------------|
A|--5-5-5-5--3-3-3-3--3-3-3-3--1-1--7-7-------------------------------|
E|--3-3-3-3-----------1-1-1-1-------5-5-------------------------------|
            
Submit corrections


        Take On Me lessons Hard to play? Try these video lessons and learn fast Take On Me lessons
        
↑ Back to top | Tablatures and chords for acoustic guitar and electric guitar, ukulele, drums are parodies/interpretations of the original songs. You may use it for private study, scholarship, research or language learning purposes only