» » »

Mxpx - Summer Of Tabs

Artists:  A B C D E F G H I J K L M N O P Q R S T U V W X Y Z # 

Summer Of Tabs

(ver. 1) Click to play this song!
Mxpx
 Rating:
4/5 (4 votes)

 Summer Of lessons Tabs too difficult? Try these video lessons and learn fast
 
                Tuning: Standard

I was looking for this song and saw no one had tabbed it, so I decided to.

X= Dead String

E|---------------------------------------------------------------|
B|---------------------------------------------------------------|
G|---------------------------------------------------------------|
D|--1010xxxxxxxx-1010xxxxxxxx-55xxxxxxxx-1010xxxxxxxx-55xxxxxxxx-|
A|--1010xxxxxxxx-1010xxxxxxxx-55xxxxxxxx-1010xxxxxxxx-55xxxxxxxx-|
E|--8-8-xxxxxxxx-8-8-xxxxxxxx-33xxxxxxxx-8-8-xxxxxxxx-33xxxxxxxx-|

E|---------------------------------------------------------------|
B|---------------------------------------------------------------|
G|---------------------------------------------------------------|
D|------------------10----5----10----5---------------------------|
A|------------------10----5----10----5---------------------------|
E|------------------8-----3----8-----3---------------------------|

E|---------------------------------------------------------------|
B|---------------------------------------------------------------|
G|---------------------------------------------------------------|
D|---7777-5555-10101010-3333--------7777--5555--10101010--3333---|
A|---7777-5555-10101010-3333--------7777--5555--10101010--3333---|
E|---5555-3333-8-8-8-8--1111--------5555--3333--8-8-8-8---1111---|

E|---------------------------------------------------------------|
B|---------------------------------------------------------------|
G|---------------------------------------------------------------|
D|-------------7777-5-----------777777-555555--------------------|
A|-------------7777-5-----------777777-555555--------------------|
E|-------------5555-3-----------555555-333333--------------------|

E|---------------------------------------------------------------|
B|---------------------------------------------------------------|
G|---------------------------------------------------------------|
D|------------------10----5----10----5---------------------------|
A|------------------10----5----10----5---------------------------|
E|------------------8-----3----8-----3---------------------------|

E|-----------------------------------------------------------------|
B|-----------------------------------------------------------------|
G|-----------------------------------------------------------------|
D|--7777--5555--10101010--3333---7777--5555--10101010--3333-7777-5-|
A|--7777--5555--10101010--3333---7777--5555--10101010--3333-7777-5-|
E|--5555--3333--8-8-8-8---1111---5555--3333--8-8-8-8---1111-5555-3-|

E|-------------------------------------------------------------------------|
B|-------------------------------------------------------------------------|
G|-------------------------------------------------------------------------|
D|-----------77777777-55555555-77777777-55555555---------------------------|
A|-----------77777777-55555555-77777777-55555555---------------------------|
E|-----------55555555-33333333-55555555-33333333---------------------------|

E|-------------------------------------------------------------------------|
B|-------------------------------------------------------------------------|
G|-------------------------------------------------------------------------|
D|----------3333--10101010--5555--7777--3333--10101010--5555-7777----------|
A|----------3333--10101010--5555--7777--3333--10101010--5555-7777----------|
E|----------1111--8-8-8-8---3333--5555--1111--8-8-8-8---3333-5555----------|




E|--------------------------------------------------------------|
B|--------------------------------------------------------------|
G|--------------------------------------------------------------|
D|-----------5--------10--------5---------10--------------------|
A|-----------5--------10--------5---------10--------------------|
E|-----------3--------8---------3---------8---------------------|

E|-------------------------------------------------------------------------|
B|-------------------------------------------------------------------------|
G|-------------------------------------------------------------------------|
D|---55555555---1010101010101010---55555555---1010101010101010-------------|
A|---55555555---1010101010101010---55555555---1010101010101010-------------|
E|---33333333---8-8-8-8-8-8-8-8----33333333---8-8-8-8-8-8-8-8--------------|

E|-----------------------------------------------------------------|
B|-----------------------------------------------------------------|
G|-----------------------------------------------------------------|
D|--7777--5555--10101010--3333---7777--5555--10101010--3333-7777-5-|
A|--7777--5555--10101010--3333---7777--5555--10101010--3333-7777-5-|
E|--5555--3333--8-8-8-8---1111---5555--3333--8-8-8-8---1111-5555-3-|

E|-------------------------------------------------------------------------|
B|-------------------------------------------------------------------------|
G|-------------------------------------------------------------------------|
D|-----------------77777777-55555555-1010101010101010-55555555-------------|
A|-----------------77777777-55555555-1010101010101010-55555555-------------|
E|-----------------55555555-33333333-8-8-8-8-8-8-8-8--33333333-------------|

E|-------------------------------------------------------------------------|
B|-------------------------------------------------------------------------|
G|-------------------------------------------------------------------------|
D|---1010101010101010---55555555---1010101010101010---55555555-5-----------|
A|---1010101010101010---55555555---1010101010101010---55555555-5-let ring--|
E|---8-8-8-8-8-8-8-8----33333333---8-8-8-8-8-8-8-8----33333333-3-----------|
            
Submit corrections


        Summer Of lessons Hard to play? Try these video lessons and learn fast Summer Of lessons
        
↑ Back to top | Tablatures and chords for acoustic guitar and electric guitar, ukulele, drums are parodies/interpretations of the original songs. You may use it for private study, scholarship, research or language learning purposes only