» » »

Mxpx - Story Tabs

Artists:  A B C D E F G H I J K L M N O P Q R S T U V W X Y Z # 

Story Tabs

(ver. 1) Click to play this song!
Mxpx
 Rating:
4/5 (4 votes)

 Story lessons Tabs too difficult? Try these video lessons and learn fast
 
                Band: MxPx
Tuning: Dropped D

Intro
Play as muted harmonics
E--------------------|
B--------------------|
G--------------------|
D--7777777777777777--|
A--5555555555555555--|
D--------------------|

E---------------------------------------------|
B---------------------------------------------|
G---------------------------------------------|
D---------------------------------------------|
A-------6677-------6677-------6677-------6677-|
D-000777-----000777-----000777-----000777-----|

E---------------------------|
B---------------------------|
G---------------let ring----|
D---------------3-----------|
A-----000333555-------------|
D--000----------------------|

Verse
E------------------------------------|
B—let ring---------------------------|
G--7------------------pick slide-----|
D--7------------------\-\-\-\-\-\----|
A--5------------------\-\-\-\-\-\----|
D--0------------------\-\-\-\-\-\----|

E-----------------------|
B—let ring--------------|
G--7--------------------|
D--7--------------------|
A--5--------------------|
D--0--------------------|

Bridge 
Guitar 1
E---------------------------------------------------|
B---------------------------------------------------|
G---------------------------------------------------|x4 then pick slide
D---------------------------------------------------|
A---------0-----------0-----------0-----------0-----|
D--0—-3h5---3--0—-3h5---3--0--3h5---3--0—-3h5---3---|

Guitar 2
E--------------------------------------------|
B—let all notes ring-------------------------|
G--7-------10----5-----7--------5------------|x2
D--7-------10----5-----7--------5-----5------|
A--5-------8-----3-----5--------3-----5------|
D--0----------------------------------5------|

Chorus
E-------------------------------------------------------------|
B-------------------------------------------------------------|
G--77777777-1010101010101010-5555555-77777777-----------------|x2
D--77777777-1010101010101010-5555555-77777777-----------------|
A--55555555-8-8-8-8-8-8-8-8--3333333-55555555-----------0-----|
D------------------------------------------------0—-3h5---3---|

Post Chorus
E---------------------------------------------------|
B---------------------------------------------------|
G---------------------------------------------------|
D---------------------------------------------------|
A---------0-----------0-----------0-----------0-----|
D--0—-3h5---3--0—-3h5---3--0--3h5---3--0—-3h5---3---|

Verse
E-----------------------|
B—let ring--------------|
G--7--------------------|
D--7--------------5-5-5-|
A--5--------------5-5-5-|
D--0--------------5-5-5-|

Bridge 
Guitar 1
E---------------------------------------------------|
B---------------------------------------------------|
G---------------------------------------------------|x4 then pick slide
D---------------------------------------------------|
A---------0-----------0-----------0-----------0-----|
D--0—-3h5---3--0—-3h5---3--0--3h5---3--0—-3h5---3---|

Bridge 
Guitar 2
E--------------------------------------------|
B—let all notes ring-------------------------|
G--7-------10----5-----7--------5------------|x2
D--7-------10----5-----7--------5-----5------|
A--5-------8-----3-----5--------3-----5------|
D--0----------------------------------5------|

Chorus
E-------------------------------------------------------------|
B-------------------------------------------------------------|
G--77777777-1010101010101010-5555555-77777777-----------------|x2
D--77777777-1010101010101010-5555555-77777777-----------------|
A--55555555-8-8-8-8-8-8-8-8--3333333-55555555-----------0-----|
D------------------------------------------------0—-3h5---3---|

Interlude (I know guitar 1 isn’t 100% right but is close)

Guitar 1
E--------------------------------------------------------------------------|
B-15-15------8-8------15-15------8-8-----151515151515-13131313-10101010----|
G-------17-------10---------17-------10------------------------------------|
D--------------------------------------------------------------------------|
A--------------------------------------------------------------------------|
D--------------------------------------------------------------------------|

Guitar 2
E-------------------------------------------------------|
B-------------------------------------------------------|
G--77777777777777777777---------------------------------|x2
D--77777777777777777777-55555555555555-77777777777777---|
A--55555555555555555555-55555555555555-77777777777777---|
D-----------------------55555555555555-77777777777777----|

Re Intro
E---------------------------------------------|
B---------------------------------------------|
G---------------------------------------------|
D---------------------------------------------|
A-------6677-------6677-------6677-------6677-|
D-000777-----000777-----000777-----000777-----|

      Just Pick while bending string 
E-----------------------------------|
B-----------------------------------|
G-----------------------------------|
D---------------3b3b3b3b3b3b3b3b3b--|
A-----000333555---------------------|
D--000------------------------------|

Chorus
E-------------------------------------------------------------|
B-------------------------------------------------------------|
G--77777777-1010101010101010-5555555-77777777-----------------|x2
D--77777777-1010101010101010-5555555-77777777-----------------|
A--55555555-8-8-8-8-8-8-8-8--3333333-55555555-----------0-----|
D------------------------------------------------0—-3h5---3---|

Out Chorus
Guitar 1
E---------------------------------------------------|
B---------------------------------------------------|
G---------------------------------------------------|
D---------------------------------------------------|
A---------0-----------0-----------0-----------0-----|
D--0—-3h5---3--0—-3h5---3--0--3h5---3--0—-3h5---3---|

Guitar 2
E---------------------------------------------------|
B---------------------------------------------------|
G--77777777-1010101010101010-5555555-77777777-------|
D--77777777-1010101010101010-5555555-77777777-------|
A--55555555-8-8-8-8-8-8-8-8--3333333-55555555-------|
D---------------------------------------------------|

Outro
Guitar 1
E---------------------------------------------------|
B---------------------------------------------------|
G---------------------------------------------------|
D---------------------------------------------------|
A---------0-----------0-----------0-----------0-----|
D--0—-3h5---3--0—-3h5---3--0--3h5---3--0—-3h5---3---|

Guitar 2
E---------------------------------------------|
B---------------------------------------------|
G—777777777777777777777777777777777777777777--|
D—777777777777777777777777777777777777777777--|
A—555555555555555555555555555555555555555555--|
D---------------------------------------------|

End on
E-----|
B-----|
G--7--|
D--7--|
A--5--|
E--0--|

Enjoy
            
Submit corrections


        Story lessons Hard to play? Try these video lessons and learn fast Story lessons
        
↑ Back to top | Tablatures and chords for acoustic guitar and electric guitar, ukulele, drums are parodies/interpretations of the original songs. You may use it for private study, scholarship, research or language learning purposes only