» » »

Mxpx - So Kill Me Tabs

Artists:  A B C D E F G H I J K L M N O P Q R S T U V W X Y Z # 

So Kill Me Tabs

(ver. 2) Click to play this song!
Mxpx
 Rating:
4/5 (4 votes)

 So Kill Me lessons Tabs too difficult? Try these video lessons and learn fast
 
                MxPx - So Kill Me

Intro
    
----------------------------------2222222222
----------------------------------1111111111
----7---5---3---5---7---5---3-------------
----7---5---3---5---7---5---3-------------
----5---3---1---3---5---3---1-------------
------------------------------------------

Verse 1

------------------------------------------
------------------------------------------
77--7777--77--7777-55--5555--55--5555-----
77--7777--77--7777-55--5555--55--5555-----
55--5555--55--5555-33--3333--33--3333-----
------------------------------------------

Chorus

-------------------------
-------------------------
33333333-5555-777-55555--
33333333-5555-777-55555--
11111111-3333-555-33333--
-------------------------

Bridge

------------------
------------------
55--5555--55--5555
55--5555--55--5555
33--3333--33--3333
------------------

Verse 2

--------------------------------------------------
4---6---------4---6-------------------------------
-------4545----------4545----------55-5555-55-5555
-----------------------------------55-5555-55-5555
-----------------------------------33-3333-33-3333
--------------------------------------------------

Solo

-----8989------8989-----6-----6-------8989------8989-----6-----9---
10-8------10-8------8-6---8-6----10-8------10-8------8-6---8-6-----


Outro

---------------
---------------
---5---7---3---
---5---7---3---
---3---5---1---
---------------

Song Order

Intro x1
Verse 1 x2
Chorus x1
Bridge x1
Chorus x1
Bridge x1
Verse 2 x2
Chorus x1
Bridge x1
Chorus x1
Bridge x1
Solo x1
Outro x1
Bridge x1
Outro x1
Bridge X1 (LET THE LAST NOTE RING)



 This is the legal stuff like this tab was wrote by MxPxFan311 and may not be used without permission
 in other words if u put it on your site ask me thats about it. HAVE FUN!!!! THANK GOD FOR THE BEST BAND EVER
MxPx!!!!!!!
            
Submit corrections


        So Kill Me lessons Hard to play? Try these video lessons and learn fast So Kill Me lessons
        
↑ Back to top | Tablatures and chords for acoustic guitar and electric guitar, ukulele, drums are parodies/interpretations of the original songs. You may use it for private study, scholarship, research or language learning purposes only