Home » M » Mxpx »

Mxpx - Is The Answer In The Question? Bass

Artists:  A B C D E F G H I J K L M N O P Q R S T U V W X Y Z # 

Is The Answer In The Question? Bass

(ver. 1) Click to play this song!
Mxpx
 Rating:
4/5 (4 votes)
                =play many times  ~~~=let ring

Intro
G:-------------------------------------
D:-------------------------------------
A:----5----3---------------------------
E:-3>---3>-----------------------------

Verse
G:-------------------------------------
D:-------------------------------------
A:----55-77----3333-----3--------------
E:-33-------77------333----------------

Verse continued...
G:-------------------------------------
D:-------------------------------------
A:----55-77----3333------5-3-2---------
E:-33-------77------3--3-------5-3-----

Pre Chorus "So where do we go..."
G:-------------------------------------
D:-------------------------------------
A:-3>----------------------------------
E:--------3>-2>-0>---------------------

Chorus "DA DA..."
G:-------------------------------------
D:------------------1-3-----3-4--------
A:---5-3-3---5--3-5-----3-5------------
E:-3-------3---------------------------

Bridge: 
G:---------------------------------------
D:------1-3-4-5>-4>-2>-----1-3-4-5>-4>-2-
A:-3>-----------------3>-----------------
E:---------------------------------------

Outro
G:-------------------------------------
D:------------------1-3-----3-4-5~~~---
A:---5-3-3---5--3-5-----3-5------------
E:-3-------3---------------------------
            
Submit corrections

↑ Back to top | Tablatures and chords for acoustic guitar and electric guitar, ukulele, drums are parodies/interpretations of the original songs. You may use it for private study, scholarship, research or language learning purposes only