» » »

Mxpx - Heard That Sound Tabs

Artists:  A B C D E F G H I J K L M N O P Q R S T U V W X Y Z # 

Heard That Sound Tabs

(ver. 3) Click to play this song!
Mxpx
 Rating:
4/5 (4 votes)

 Heard That Sound lessons Tabs too difficult? Try these video lessons and learn fast
 
                -------------------------------------------------------------------------------
                                 MxPx
                           Heard That Sound
-------------------------------------------------------------------------------

This is an awesome song off MxPx's.

Tuning: Standard Tuning capo on second fret. 


(You Can Figure The Strumming Out--It's Pretty Easy)
     Guitar I
e|---------------------------------------------------------------------------|
B|--------------------5------------------------------------5-----------------|
G|-----------4--------6--------2------------------4--------6--------2--------|
D|--2--------4-x14----6-x14----2-x14-----2--------4-x14----6-x14----2-x14----|
A|--2-x28----2--------4--------0---------2-x14----2--------4--------0--------|
E|--0------------------------------------0-----------------------------------|
      
     Bridge Guitar I
e|---------------------------------------------------------------------------|
B|--5--------------------------5---------------------------------------------|
G|--6--------4--------2--------6--------4--------2---------------------------|
D|--6-x14----4-x14----2-x28----6-x14----4-x14----2-x28-----------------------|
A|--4--------2--------0--------4--------2--------0---------------------------|
E|---------------------------------------------------------------------------|
    It's the same as the beginning after the bridge.                    
            
Submit corrections


        Heard That Sound lessons Hard to play? Try these video lessons and learn fast Heard That Sound lessons
        
↑ Back to top | Tablatures and chords for acoustic guitar and electric guitar, ukulele, drums are parodies/interpretations of the original songs. You may use it for private study, scholarship, research or language learning purposes only