» » »

Mxpx - Christmas Day Tabs

Artists:  A B C D E F G H I J K L M N O P Q R S T U V W X Y Z # 

Christmas Day Tabs

(ver. 1) Click to play this song!
Mxpx
 Rating:
4.4/5 (7 votes)

 Christmas Day lessons Tabs too difficult? Try these video lessons and learn fast
 
                -----------------------------------------------------------------
-----------------------------------------------------------------
Tuning: Standard

Main Riff:
e|--3-2---0----3-2---0--3-2---0-----------------|
B|------3---3------3--------3---3-0-------------|
G|----------------------------------2-0---------|
D|----------------------------------------------|
A|----------------------------------------------|
E|----------------------------------------------|

Intro:
e|------------|---------------------------------------------------|
B|------------|---------------------------------------------------|
G|------------|--------------------555555-------------------------|
D|--xxxxxxxx--|--55555555--222222--555555--(X2)-------------------|
A|--xxxxxxxx--|--55555555--222222--333333-------------------------|
E|--xxxxxxxx--|--33333333--000000---------------------------------|

Verse:
e|---------------------------------------------------------------|
B|---------------------------------------------------------------|
G|------------------------5-5555555------------------------------|
D|--5-5555555--2-2222222--5-5555555--(X2)------------------------|
A|--5-5555555--2-2222222--3-3333333------------------------------|
E|--3-3333333--0-0000000-----------------------------------------|
"She waits and prays, because it's almost Christmas day...."

Pre- Chorus:
e|---------------------------------------------------------------|
B|---------------------------------------------------------------|
G|--77777777--55555555--77777777--5555--7777---------------------|
D|--77777777--55555555--77777777--5555--7777---------------------|
A|--55555555--33333333--55555555--3333--5555---------------------|
E|---------------------------------------------------------------|
"There's something about the way you spend your Christmas...."

Chorus:
e|---------------------------------------------------------------|
B|---------------------------------------------------------------|
G|----------------------55555555--7777--5555---------------------|
D|--55555555--22222222--55555555--7777--5555--(X2)---------------|
A|--55555555--22222222--33333333--5555--3333---------------------|
E|--33333333--00000000-------------------------------------------|
"A little goes a long way. A little goes a long way...."

Bridge:
e|---------------------------------------------------------------|
B|---------------------------------------------------------------|
G|----------------------55555555--77777777-----------------------|
D|--55555555--22222222--55555555--77777777--(X2)-----------------|
A|--55555555--22222222--33333333--55555555-----------------------|
E|--33333333--00000000-------------------------------------------|
"The snow outside covers the ground...."

e|---------------------------------------------------------------|
B|---------------------------------------------------------------|
G|-------------5-5555555-------------7-7777777-------------------|
D|--2-2222222--5-5555555--5-5555555--7-7777777-------------------|
A|--2-2222222--3-3333333--5-5555555--5-5555555-------------------|
E|--0-0000000-------------3-3333333------------------------------|
"On Christmas day, on Christmas day, on Christmas day...."

Outro:
e|---------------------------------------------------------------|
B|---------------------------------------------------------------|
G|------------------------5-555-5-5-5-5--------------------------|
D|--5-5555555--2-2222222--5-555-5-5-5-5--5-----------------------|
A|--5-5555555--2-2222222--3-333-3-3-3-3--5--(Let Ring)-----------|
E|--3-3333333--0-0000000-----------------3-----------------------|
            
Submit corrections


        Christmas Day lessons Hard to play? Try these video lessons and learn fast Christmas Day lessons
        
↑ Back to top | Tablatures and chords for acoustic guitar and electric guitar, ukulele, drums are parodies/interpretations of the original songs. You may use it for private study, scholarship, research or language learning purposes only