» » »

Mxpx - Another Song About Tv Tabs

Artists:  A B C D E F G H I J K L M N O P Q R S T U V W X Y Z # 

Another Song About Tv Tabs

(ver. 1) Click to play this song!
Mxpx
 Rating:
4/5 (4 votes)

 Another Song About Tv  lessons Tabs too difficult? Try these video lessons and learn fast
 
                Intro
riff 1
G|--9-8-7---------------------|
D|-------9-8-7-5---7------5---|
A|-7-------------5---5--3---3-|
E|----------------------------|
riff 2
G|--9-8-7----------------------|
D|-------9-8-7-5---7------10---|
A|-7-------------5---5--8----8-|
E|-----------------------------|

Practice these SLOWLY at first, then gradually speed up.

Play:
riff 1, riff 2 (twice)
E (seventh fret, A string)
D (fifth fret, A string)
B (seventh fret, E string)
            
Submit corrections


        Another Song About Tv  lessons Hard to play? Try these video lessons and learn fast Another Song About Tv  lessons
        
↑ Back to top | Tablatures and chords for acoustic guitar and electric guitar, ukulele, drums are parodies/interpretations of the original songs. You may use it for private study, scholarship, research or language learning purposes only