Home » M » Murder By Death »

Murder By Death - Brother Tabs

Artists:  A B C D E F G H I J K L M N O P Q R S T U V W X Y Z # 

Brother Tabs

(ver. 1) Click to play this song!
Murder By Death
Since I couldn't find the tab for this song anywhere i decided to give it a try.  May 
be 100% but its a start.

Capo on 7th Fret

Intro - 2x
E|--------------------------------------------------------------3---3------|
B|---1--111---1--111---1--111---0--000---1--111---1--111---0--00--0---0----|
G|---2--222---0--000---2--222---1--111---2--222---0--000---0--00---0---0---|
D|---2--222---2--222---3--333---2--222---3--333---2--222---2--22-----------|
A|-0-0--000-3-3--333---3--333---2--222---3--333-3-3--333---2--22-----------|
E|-------------------1-1--111-0-0--000-1-1--111----------0-0--00-----------|

Verse
E|-------------------------------------------------------------------------|
B|---1--111---1--111---1--111---0--000---1--111---1--111---0--00-00-0-00---|
G|---2--222-0-0--000-2-2--222-1-1--111-2-2--222-0-0--000-0-0--00-00-0-00---|
D|---2--222-2-2--222-3-3--333-2-2--222-3-3--333-2-2--222-2-2--22-22-2-22---|
A|-0-0--000-3-3--333-3-3--333-2-2--222-3-3--333-3-3--333-2-2--22-22-2-22---|
E|-------------------1-1--111-0-0--000-1-1--111----------0-0--00-00-0-00---|

E|---------------------------------------------------------|
B|---1--111---1--111---1--111---0--000---1--111---1--111---|
G|---2--222-0-0--000-2-2--222-1-1--111-2-2--222-0-0--000---|
D|---2--222-2-2--222-3-3--333-2-2--222-3-3--333-2-2--222---|
A|-0-0--000-3-3--333-3-3--333-2-2--222-3-3--333-3-3--333---|
E|-------------------1-1--111-0-0--000-1-1--111------------|


E|-0------------------------------------------------------3---3------------|
B|---1----------1------1--------0----1----------0----0--00--0---0----------|
G|-----2------0------2---0-1--1----2---2------0------0--00---0---0---------|
D|-------2---2-----3-------2-2-----3-----3---2-------2--22-----------------|
A|---------3-------------------------------3-------2-2--22-----------------|
E|-------------------------------------------------0-0--00-----------------|

Verse - 2x
E|-------------------------------------------------------------------------|
B|---1--111---1--111---1--111---0--000---1--111---1--111---0--00-00-0-00---|
G|---2--222-0-0--000-2-2--222-1-1--111-2-2--222-0-0--000-0-0--00-00-0-00---|
D|---2--222-2-2--222-3-3--333-2-2--222-3-3--333-2-2--222-2-2--22-22-2-22---|
A|-0-0--000-3-3--333-3-3--333-2-2--222-3-3--333-3-3--333-2-2--22-22-2-22---|
E|-------------------1-1--111-0-0--000-1-1--111----------0-0--00-00-0-00---|

Chorus ("How Long...")
E|-------------------------------------------------------------------------|
B|-1-1--111-1-1--111-1-1--111-0-0--000-1-1--111-1-1--111-1-1--111-0-0--000-|
G|-2-2--222-0-0--000-2-2--222-1-1--111-2-2--222-0-0--000-2-2--222-1-1--111-|
D|-2-2--222-2-2--222-3-3--333-2-2--222-2-2--222-2-2--222-3-3--333-2-2--222-|
A|-0-0--000-3-3--333-3-3--333-2-2--222-0-0--000-3-3--333-3-3--333-2-2--222-|
E|-------------------1-1--111-0-0--000-------------------1-1--111-0-0--000-|

E|-------------------------------------------------------------------------|
B|-1-1--111-1-1--111-1-1--111-0-0--000-1-1--111-11--111-0-0-0000-00--000---|
G|-2-2--222-0-0--000-2-2--222-1-1--111-2-2--222-22--222-1-1-1111-11--111---|
D|-2-2--222-2-2--222-3-3--333-2-2--222-3-3--333-33--333-2-2-2222-22--222---|
A|-0-0--000-3-3--333-3-3--333-2-2--222-3-3--333-33--333-2-2-2222-22--222---|
E|-------------------1-1--111-0-0--000-1-1--111-11--111-0-0-0000-00--000---|


("So Brother...")
E|-------------------------------------------------------------------------|
B|-1-1-1-1-1-1-1-1-1-1-111-0-0-000-1-1-1-1-1-1-1-1-1-1-111-0-0-000---------|
G|-2-2-2-2-2-2-2-2-2-2-222-1-1-111-2-2-2-2-2-2-2-2-2-2-222-1-1-111---------|
D|-3-3-3-3-3-3-3-3-2-2-222-2-2-222-3-3-3-3-3-3-3-3-2-2-222-2-2-222---------|
A|-3-3-3-3-3-3-3-3-0-0-000-2-2-222-3-3-3-3-3-3-3-3-0-0-000-2-2-222---------|
E|-1-1-1-1-1-1-1-1---------0-0-000-1-1-1-1-1-1-1-1---------0-0-000---------|

E|-----------------------------------|
B|-1-1-1-1-1-1-1-1-1-1-111-0-0-000---|
G|-2-2-2-2-2-2-2-2-2-2-222-1-1-111---|
D|-3-3-3-3-3-3-3-3-2-2-222-2-2-222---|
A|-3-3-3-3-3-3-3-3-0-0-000-2-2-222---|
E|-1-1-1-1-1-1-1-1---------0-0-000---|

("I know there's better brothers...")
E|---------------3-------0---------------------3-------0-------------------|
B|---------------0-------1---------------------0-------1-------------------|
G|---------------0-------2---------------------0-------2-------------------|
D|-3-------------2-------2-------3-------------2-------2-------------------|
A|-3-------------2-------0-------3-------------2-------0-------------------|
E|-1-------------0---------------1-------------0---------------------------|

Verse (Ring out chords, don't strum)

Chorus

"So Brother..." part

Outro
Same Chords as Intro
            
Submit corrections

↑ Back to top | Tablatures and chords for acoustic guitar and electric guitar, ukulele, drums are parodies/interpretations of the original songs. You may use it for private study, scholarship, research or language learning purposes only